Войти:  Facebook Google Twitter Vk Yandex Mail.ru
PrimaNota.ru - самый крупный в мире бесплатный архив песенных текстов, аккордов, табулатур и нот


10 Years - Shelter - табы

Печатать
ViraMusic 2019 в Петербурге 4 апреля 2019! Скидка 10%!

Shelter

  • аккорды, текст
  • gtp-табы

10 Years = Shelter
Tuning = C# G# C# F# A# D#
This is a great song from a great group.  The verse is very close but the chorus is 
on.  Let me know if you have any corrections.
The tab represents the lead guitar

Verse Part #1
D# ------------------------------------------------|
A# ------------------------------------------------|
F# -------------4--------4--------------4-------4--|
C# ---------4-------4----4-----------4-----4—---4--|
G# -----2-------------4--0--------2----------4--0--|
C# -2--------------------0—-0h/2----------------0--|

    Please savior of here Give me shelter from fear
    I need answers to this Crazy world that so mixed

Verse Part #2
D# ----------2-------2--|
A# -------0-----0----0--|
F# ----4----------4--4--|
C# -4----------------4--|
G# ---------------------|
C# ---------------------|

    With the pain that leaves us
    Lifeless and dead-souled
    We all need to
    Break this mold

Pre-Chorus (X2)
D# --------------------------------------------|
A# --------------------------------------------|
F# -------4------4-4-4-4----------4----4-4-4-4-|
C# -----4----4---4-4-4-4--------4---4—-4-4-4-4-|
G# ---2----------0-0-0-0------2--------0-0-0-0-|
C# -2------------0—0-0-0-0h/2----------0-0-0-0-|

Chorus
D# -2-----5----7------------7------------------5--|
A# -2-----5----7------------7------------------5--|
F# -2-----5----7------------5------------------7--|
C# -2-----5----7------------5------------------7--|
G# -2-----5----7------------7------------------5--|
C# -2-----5----7------------7------------------5--|
   I'm    so   sure you'll  blame me for this  all
   What's so   wrong you    claim to call this love
   I'm    so   sure you'll  blame me for this  all
   What's so   wrong you    claim to call this love

Verse Part #1

   Drips hit the floor      Who cares at all
   Flesh sheared and torn   sleeves hide remorse

Verse Part #2

   Stardom branded skin   traps pain within
   Expectations           never reaching

Pre-Chorus (X2)

Chorus (Same lyrics)

Bridge (same chords as chorus with a variation)
Bridge (Solo guitar?)

Chorus (Same chords, same Lyrics)

Outro (Same pattern as verse part #1 and verse part#2)   
https://primanota.ru/10-years/shelter-chords.htm

Привет, гитарист!

Тебе подарок от сайта PrimaNota.ru

Забрать подарок
ВАМ ПОДАРКИ ОТ ПРОЕКТА
"ГИТАРНАЯ РЕВОЛЮЦИЯ"