PrimaNota.ru - самый крупный в мире бесплатный архив песенных текстов, аккордов, табулатур и нот


Zz Top - Somebody Else Is Shaking Your Tree - таба, видео

Регистрация Запомнить меня
Войти через:  Facebook Google Twitter Vk Yandex Mail.ru

Zz Top - Somebody Else Is Shaking Your Tree - таба, видео

Печатать
Просмотров: 76
The riff is played on slide guitar and with some variation between the intro and conclusion.  This is based 
largely on the ending.  But the basic notes are here(to my ear at least).

E |--------15s14---------------|-----------15s14----10------|
B |--------12s10-15-15-15~-----|--15-15-15-12s10-------10---|
G |--------------11-12-11------|--11s12s11------------------|
D |----------------------------|----------------------------|
A |----------------------------|----------------------------|
E |----------------------------|----------------------------|


-----------15s14----10------|-----------15s14------------||
-----15-15-------------10---|-----15-15-12s10------------||
--11-12s11-12s11------------|--11-12s11------------------||
----------------------------|----------------------------||
----------------------------|----------------------------||
----------------------------|----------------------------||

Добавлено: 20.10.2015
Другие материалы по этой песне:

Страница создана 20.10.2015
http://primanota.ru/zz-top/somebody-else-is-shaking-your-tree-chords.htm
Привет, Гость.
Предлагаем пройти революционный курс по гитаре.
Подарок от PrimaNota.Ru, забирай!