PrimaNota.ru - самый крупный в мире бесплатный архив песенных текстов, аккордов, табулатур и нот


Zz Top - Fuzzbox Voodoo - текст песни, таба, видео

Регистрация Запомнить меня
Войти через:  Facebook Google Twitter Vk Yandex Mail.ru

Zz Top - Fuzzbox Voodoo - текст песни, таба, видео

Печатать
Просмотров: 296
-------------------------------------------------------------------------------
                        Fuzzbox Voodoo - ZZ Top
-------------------------------------------------------------------------------
Tabbed by: George Juggles
E-mail:nwells522@hotmail.com

Tuning: EADGBE (standard)

Intro/Verse 1 and 2:
e|---------------------------------------------------------------------------|
B|---0-0-0-0-0-0-0-----0-0-0-0-0-0-0-----0-0-0-0-0-0-0-----------------------|
G|---7/9-7-9-7-7-9-----7/9-7-9-7-7-9-----7/9-7-9-7-7-9---------7-------------|
D|---------------------------------------------------------7/9---8p7-5-------|
A|-----------------(7)---------------(7)-------------------------------7-5-7-|
E|---------------------------------------------------------------------------|

e|---------------------------------------------------------------------------|
B|-------------0-0-0-0-0-0-0-----0-0-0-0-0-0-0-------------------------------|
G|-------------7/9-7-9-7-7-9-----7/9-7-9-7-7-9------------7/9-7--------------|
D|-----------------------------------------------5--7-7-5-------7-5-7-7------|
A|----(5)(7)(5)(7)-----------(7)----------------------------------------5-5h7|
E|-(7)-----------------------------------------------------------------------|


The bracketed notes in the above section represent what the rhythm guitar would be playing. It is possible to play then along with the lead, but it makes it more difficult

Chorus:
e|--------7-----------7------------------------------------------------------|
B|--------7-----------7------0-0-0-0-0-----0-0-0-0-0-0-0-----0-0-0-0-0-0-0---|
G|---------------------------9-9-7-7-9-----7/9-7-9-7-7-9-----7/9-7-9-7-7-9---|
D|--8-9---------8-9----------------------------------------------------------|
A|--8-9---------8-9----------------------------------------------------------|
E|--6/7---------6/7----------------------------------------------------------|

e|---------------------------------------------------------------------------|
B|---0-0-0-0-0-0-0-----------------------------------------------------------|
G|---7/9-7-9-7-7-9-----------------------------------------------------------|
D|---------------------------------------------------------------------------|
A|---------------------------------------------------------------------------|
E|---------------------------------------------------------------------------|

Chorus 2:
e|--------7-----------7-----------7------------7-------------------------------|
B|--------7-----------7-----------7------------7-------------------------------|
G|-----------------------------------------------------------------------------|
D|---9-----------9-----------9-----------9-------------------------------------|
A|---9-----------9-----------9-----------9-------------------------------------|
E|---7-----------7-----------7-----------7-------------------------------------|

Solo 1:
     E
e|---------------------------------------------------------------------------|
B|---------------------------------------------------------------------------|
G|---12b---10----------------------------------------------------------------|
D|------------12-----12hb-14----12-------------------------------------------|
A|---------------------------14----14\12-10-12hb--12hb--12hb-12hbr-10-12hb---|
E|---------------------------------------------------------------------------|

e|---------------------------------------------------------------------------|
B|---------------------------------------------------------------------------|
G|---------------------------------------------------------------------------|
D|---------------------------------------------------------------------------|
A|---12hb-12hb-12hbr-10-12-12hb----10--------------------------------10hb----|
E|------------------------------------12--10h12------12--12--10--12----------|

e|---------------------------------------------------------------------------|
B|---------------------------------------------------------------------------|
G|---------------------------------------------------------------------------|
D|------------------------------12-------12---------------------------12-----|
A|------------10----10-12-12/14----12/14----12/14-10--------10-12/14---------|
E|---12-10-12----12--------------------------------------12------------------|

e|---------------------------------------------------------------------------|
B|---------------------------------------------------------------------------|
G|---------------------------------------------------------12-14-14-12-14b---|
D|---12-----12------------------------------------12----14-------------------|
A|-------14----14\12-10------------------10-12/14----14----------------------|
E|-----------------------12--10h12-------------------------------------------|
                                A
e|---------------------------------------------------------------------------|
B|--------------------------------12---12-------12--------------12---12------|
G|---12---------------------------12---12-------12--------------12---12------|
D|------14-12------------------------------14-------14-12-14-------------14--|
A|------------14\12-10---5-7-------------------------------------------------|
E|---------------------5-----------------------------------------------------|

e|---------------------------------------------------------------------------|
B|--------------------------------14---14------------------------------------|
G|---12-14b-12-14-12h14b----------14---14--12------14----14-14---------14----|
D|----------------------------/14---------------14----14------------14-------|
A|---------------------------------------------------------------------------|
E|---------------------------------------------------------------------------|

e|---------------------------------------------------------------------------|
B|--------------------------------------------------(Let this last-----------|
G|---14-14b-12-14-14-12------------------------------note ring for-----------|
D|----------------------14----12-------------------------a while)------------|
A|-------------------------14----14\12-10------------------------------------|
E|----------------------------------------12---------------------------------|

The rhythm part for the solo is like this

     E               A
e|---------------------------------------------------------------------------|
B|---------------------------------------------------------------------------|
G|-----------------------0------------0--------------------------------------|
D|----2---2--0-0-2-------0------------0--------------------------------------|
A|----2---2--0-0-2-------2------------2--------------------------------------|
E|----0---0------0-----3------------3----------------------------------------|

It switches between E and A about halfway through the song

Post solo:
e|---------------------------------------------------------------------------|
B|---0-0-0-0-0-0-0-----0-0-0-0-0-0-0-----0-0-0-0-0-0-0---0--0-0-0-0-0-0-0-0--|
G|---7/9-7-9-7-7-9-----7/9-7-9-7-7-9-----7/9-7-9-7-7-9------------7/9-7------|
D|-------------------------------------------------------5--7-7-5-------7-5--|
A|---------------------------------------------------------------------------|
E|---------------------------------------------------------------------------|

e|---------------------------------------------------------------------------|
B|---0-0-0-0-0-0-0-----0-0-0-0-0-0-0-----0-0-0-0-0-0-0-----------------------|
G|---7/9-7-9-7-7-9-----7/9-7-9-7-7-9-----7/9-7-9-7-7-9---------7-------------|
D|---------------------------------------------------------7/9---8p7-5-------|
A|-----------------(7)---------------(7)-------------------------------7-5-7-|
E|---------------------------------------------------------------------------|

Verse 3:
e|---------------------------------------------------------------------------|
B|---0-0-0-0-0-0-0-----0-0-0-0-0-0-0---------0--0-0-0-0-0-0------------------|
G|---7/9-7-9-7-7-9-----7/9-7-9-7-7-9------------------7/9-7----7-------------|
D|------------------------------------5------5--7-7-5-------/9---8p7-5-------|
A|--------------------------------------7-7----------------------------7-5h7-|
E|---------------------------------------------------------------------------|

e|---------------------------------------------------------------------------|
B|---0-0-0-0-0-0-0-----0-0-0-0-0-0-0----------0--0-0-0-0-0-0-0-0--0-0-0-0----|
G|---7/9-7-9-7-7-9-----7/9-7-9-7-7-9-------------------7/9-7-----------------|
D|------------------------------------5-------5--7-7-5-------7-5--7-7--------|
A|--------------------------------------7-7---------------------------5-5h7--|
E|---------------------------------------------------------------------------|

Solo 2: Same rhythm guitar as first solo
      E
e|---------------------------------------------------------------------------|
B|---------------------------------------------------------------------------|
G|-------------------------14-12-14------------------------------------------|
D|----------------------------------12----14\--------------------------------|
A|------------------------------------------------12--10---------------------|
E|-----12--------12-------------------------------------------12--------12---|
                                            A
e|---------------------------------------------------------------------------|
B|------------------------------------------12-------------------------------|
G|------------------------------------------12--12--------12-----------------|
D|---------12--------------------------------------14--------14----12--------|
A|---12/14----12--10-12-10-10-10-10-10--------------------------14-----------|
E|---------------------------------------------------------------------------|

e|------------------------12-------------------------------------------------|
B|---12--12------------15-----/15----13hb----12--12--------------------------|
G|---12--12--------14b-----------------------12--12-------12-14b-12-14----14-|
D|----------14--------------------------------------14-----------------12----|
A|---------------------------------------------------------------------------|
E|---------------------------------------------------------------------------|

e|---------------------12-------12-------------------------------------------|
B|---------------12-12-------15-----------12-x-x-14-x-x-12-------------------|
G|---14-12-------12-----------------------12-x-x-14-x-x-12-------------------|
D|----------------------------------------------------------14-12-14---------|
A|---------------------------------------------------------------------------|
E|---------------------------------------------------------------------------|

From this point on, he just plays the same stuff as in the first verse. Billy does solo 
in the background, but
it just sounds like noodling so this is your time to do some improvising.

There are lots of pinch harmonics/artificial harmonics in both of the solos. I didn't 
mark them on the tab but
it is very easy to hear them from the song. You don't have to play them all, or even 
play any of them, but it
will probably make the solo sound better if you do

Enjoy this amazing tune.

P.S. It's best played with a fuzzbox

************************************

| /   slide up
| \   slide down
| h   hammer-on
| p   pull-off
| ~   vibrato
| +   harmonic
| x   Mute note
| b   Bend
| pb  Pre-bend
| br  Bend release
| pbr Pre-bend release
| brb Bend release bend
| hb  Half bend
| hbr Half bend release

************************************
Добавлено: 11.05.2015
Другие материалы по этой песне:
  • Аккорды и текст

Страница создана 30.03.2012
http://primanota.ru/zz-top/fuzzbox-voodoo-chords.htm
Привет, Гость.
Предлагаем пройти революционный курс по гитаре.
Подарок от PrimaNota.Ru, забирай!