PrimaNota.ru - самый крупный в мире бесплатный архив песенных текстов, аккордов, табулатур и нот


Zz Top - Chartreuse - текст песни, бас-таба, видео

Регистрация Запомнить меня
Войти через:  Facebook Google Twitter Vk Yandex Mail.ru

Zz Top - Chartreuse - текст песни, бас-таба, видео

Печатать
Просмотров: 210
Авторы: Gary Moon, Dusty Hill, Frank Beard, Billy Gibbons

-------------------------------------------------------------------------------
                             CHARTREUSE - Zz Top
-------------------------------------------------------------------------------
Tabbed by: -Aurinko-


OPTION 1 Tuning: D A D G


2 GUITAR RIFFS (no bass)

RIFF (x2)
G|--------------------|
D|--3--1--------------|
A|-3-----3--3-1--1-3--|
D|--------------------|

VERSE beginning (x2)
Chartreuse, You got the color that turns me loose
Chartreuse, That color just turns me loose
G|----------------------------------------------------------------|
D|--------------------------------------------------------------3-|
A|-3-333-1--3-3-1-------------------------0-0-3-333-1-3-33-33-3---|
D|----------------0-0-1-1-2-2-3-3-5-5-6-6-------------------------|

VERSE continuation
Better than Magenta, Better than Fuse
You got a shade that gets rid of the blues
G|---------------------------------|
D|------3-------3-------3-------3--|
A|---------------------------------|
D|-5-55----5-55----5-55----5-55----|

1 GUITAR RIFF (no bass)
RIFF (x1)

VERSE

2 GUITAR RIFF (no bass)

GUITAR SOLO
G|------------------------------------------------------|
D|-00-22-33-22--00-22-33-22--00-22-33-22--00-22-33-22---|
A|------------------------------------------------------|
D|------------------------------------------------------|

G|------------------------------------------------------|
D|----------------------------00-22-33-22--00-22-33-22--|
A|--00-22-33-22--00-22-33-22----------------------------|
D|------------------------------------------------------|

G|------------------------------------------------------|
D|------------------------------------------------------|
A|00-22-33-22--00-22-33-22-----------------1-1-1-3------|
D|---------------------------3-3-3--5-5-5---------------|

VERSE

RIFF (X4)

GUITAR SOLO

===============================================================================

OPTION 2 Tuning: standard


2 GUITAR RIFFS (no bass)

RIFF (x2)
G|--------------------|
D|--3--1--------------|
A|-3-----3--3-1--1-3--|
E|--------------------|

VERSE beginning (x2)
Chartreuse, You got the color that turns me loose
Chartreuse, That color just turns me loose
G|----------------------------------------------------------------|
D|----------------0-0-1-1---------------------------------------3-|
A|-3-333-1--3-3-1-------------------------0-0-3-333-1-3-33-33-3---|
E|------------------------0-0-1-1-3-3-4-4-------------------------|

VERSE continuation
Better than Magenta, Better than Fuse
You got a shade that gets rid of the blues
G|---------------------------------|
D|------3-------3-------3-------3--|
A|---------------------------------|
E|-3-33----3-33----3-33----3-33----|

1 GUITAR RIFF (no bass)
RIFF (x1)

VERSE

2 GUITAR RIFF (no bass)

GUITAR SOLO
G|------------------------------------------------------|
D|-00-22-33-22--00-22-33-22--00-22-33-22--00-22-33-22---|
A|------------------------------------------------------|
E|------------------------------------------------------|

G|------------------------------------------------------|
D|----------------------------00-22-33-22--00-22-33-22--|
A|--00-22-33-22--00-22-33-22----------------------------|
E|------------------------------------------------------|

G|------------------------------------------------------|
D|------------------------------------------------------|
A|00-22-33-22--00-22-33-22-----------------1-1-1-3------|
E|---------------------------1-1-1--3-3-3---------------|

VERSE

RIFF (X4)

GUITAR SOLO

===============================================================================
Добавлено: 11.05.2015
Другие материалы по этой песне:
  • Аккорды и текст

Страница создана 18.09.2013
http://primanota.ru/zz-top/chartreuse-chords.htm
Привет, Гость.
Предлагаем пройти революционный курс по гитаре.
Подарок от PrimaNota.Ru, забирай!