PrimaNota.ru - самый крупный в мире бесплатный архив песенных текстов, аккордов, табулатур и нот


Zz Top - Blue Jeans Blues - аккорды и текст, видео

Регистрация Запомнить меня
Войти через:  Facebook Google Twitter Vk Yandex Mail.ru

Zz Top - Blue Jeans Blues - аккорды и текст, видео

Печатать
Просмотров: 521
Уроки эстрадного вокала в Санкт-Петербурге
Blue Jeans Blues
Zz Top
E||-----------9~---------------------|-----------------------------------|
B||----------------------------------|--------0----0---------------------|
G||----------------------------------|--------2h-4-2---------------------|
D||----------------------------------|---------------4/2-0-2-------------|
A||--7--8--9----------------------0--|-----------------------0/2---------|
E||--------------------------3-------|-----------------------------------|

-------------------------------------|-----------------------------|
-------------------------------------|--------10-------------------|
-----------9-7-9---7---9---7---------|-----------9b----------------|
---------9-------9---9---9---9-------|-----------------------------|
-------------------------------------|-----------------------------|
-------------------------------------|-----------------------------|

------------------|------------------|---------------------------|
------------------|------------------|---------------------------|
------------------|------------------|--------9b-----------------|
------------------|------------------|---------------------------|
------------------|------------------|---------------------------|
------------------|------------------|---------------------------|

--------------------------------------------------|
--10----------------------------------------------|
-----9b9--7-9-7h9-7-9-7-9-7h9-7h9-7---------------|
------------------------------------9-7h9-7-------|
--------------------------------------------9h7-5-|
--------------------------------------------------|

-----------------------------|------------------|
-----------------------------|------------------|
-----------------------------|------------------|
-----------------------------|------------------|
--7b-7--5--------------------|------------------|
-----------------------------|------------------|

-------------------7-10-----------|------------------------------------|
----------------------------------|------------------------------------|
----9b------------------9b-9-7--9-|--7h9-7h9-7h9-7---------------------|
----------------------------------|----------------9-7-----------------|
----------------------------------|--------------------9---------------|
----------------------------------|------------------------------------|

------------------|------------------------------|
------------------|------------------------------|
------------------|--------------------9b-9--7-9-|
------------------|------------------------------|
------------------|------------------------------|
------------------|------------------------------|

---------------------------------7-10b|
-------------------------------7------|
----7----------------------7-9b-------|
--9---9-9-------9--------9------------|
--------------------------------------|
--------------------------------------|

--7------------------------------------------|
----7-------------7-----------------10b------|
------9b9h7-9-9-----7------------------------|
----------------9-----9-9-7------------------|
---------------------------------------------|
---------------------------------------------|

---------------7-----------------------------------|
-----------------10-7-10---------------------------|
-------------------------9b9-7-9-9---7-9-9-9-7---9-|
-----------------------------------9-----------9---|
---------------------------------------------------|
---------------------------------------------------|

-----------------------------------------------|
----7------------------------------------------|
------7-------------------7-9-9b9h7-----9b-9h7-|
--9-----9-9~------7---7-9----------------------|
--------------------9--------------------------|
-----------------------------------------------|

------7-10---7------------------------------------|
-----------9---7----------7-----------------------|
--9-7------------9b-7---9---7-------7---7-9---7-9-|
----------------------9-------9-9-9---9-----9-----|
--------------------------------------------------|
--------------------------------------------------|

--------------------------12-12b--12----10----|--12b---------------------------|
--------------------------12---------12----12-|--------------------------------|
--9b9-7-9-7-9-9-7-----------------------------|-----------------------9-7-9-7--|
----------------------------------------------|--------------------------------|
----------------------------------------------|--------------------------------|
----------------------------------------------|--------------------------------|

---------------------------------------------|
---------------------------------------------|
--9b---7---9---7-----------------9-9-9-7-9-9-|
---------9---9---9-9-7-----------------------|
-----------------------9-7-5-----------------|
-----------------------------7---------------|

----------------------------------------7--|
------7---7-----------------7-------10-----|
--9-9---9---7---9---7-9-9-9----------------|
--------------9---9------------------------|
-------------------------------------------|
-------------------------------------------|

--10--7--12b-----10-------------10-----|--12b-----------------------|
--------------------12~-------------12-|----------------------------|
---------------------------------------|----------------------------|
---------------------------------------|----------------------------|
---------------------------------------|----------------------------|
---------------------------------------|----------------------------|

----------------------------------------|---|---|---|---|---|---|---|---|---|
----------------------------------------|---|---|---|---|---|---|---|---|---|
--------9--7-9----------2h4-2-----------|---|---|---|---|---|---|---|---|---|
----------------9~------------4h2-0-2/4-|---|---|---|---|---|---|---|---|---|
----------------------------------------|---|---|---|---|---|---|---|---|---|
----------------------------------------|---|---|---|---|---|---|---|---|---|
Добавлено: 21.09.2013
Другие материалы по этой песне:
  • Аккорды и текст

Страница создана 21.09.2013
http://primanota.ru/zz-top/blue-jeans-blues-chords.htm
Привет, Гость.
Предлагаем пройти революционный курс по гитаре.
Подарок от PrimaNota.Ru, забирай!