PrimaNota.ru - самый крупный в мире бесплатный архив песенных текстов, аккордов, табулатур и нот


Zz Top - Bad Girl - текст песни, таба, бас-таба, видео

Регистрация Запомнить меня
Войти через:  Facebook Google Twitter Vk Yandex Mail.ru

Zz Top - Bad Girl - текст песни, таба, бас-таба, видео

Печатать
Просмотров: 193
Авторы: Dusty Hill, Frank Beard, Billy Gibbons

BAD GIRL

As recorded by ZZ Top
(From the 1983 Album ELIMINATOR)

Words and Music by Billy Gibbons, Dusty Hill & Frank Beard

Transcribed by Slowhand


Gtr I (E A D G B E) - 'Billy Gibbons - Electric Guitar 1'
Gtr II (E A D G B E) - 'Billy Gibbons - Electric Guitar 2'
Gtr III (E A D G B E) - 'Billy Gibbons - Electric Guitar 3'


 Intro
  Q=160
            A   A5
 4/4
  Gtr I
                PM---------------------------------
  W             E E E E E E E E   E E E E E E E E
|-------------|-----------------|-----------------|
|-------------|-----------------|-----------------|
|-------------|-----------------|-----------------|
|-------------|-2-2-2-2-2-2-2-2-|-2-2-2-2-2-2-2-2-|
|-------------|-0-0-0-0-0-0-0-0-|-0-0-0-0-0-0-0-0-|
|-------------|-----------------|-----------------|
|
| Gtr II
| H    Q  E E   Q   Q   Q   E E   Q   Q   Q   E E
|-------------|-----------------|-----------------|
|-----------2-|-2---2---------2-|-2---2---------2-|
|-----------2-|-2---2---------2-|-2---2---------2-|
|-----------2-|-2---2---------2-|-2---2---------2-|
|-----------0-|-0---0---------0-|-0---0---------0-|
|-------------|-----------------|-----------------|


 ---------------------------------|
  E E E E E E E E   E E E E E E E E
|-----------------|-----------------|
|-----------------|-----------------|
|-----------------|-----------------|
|-2-2-2-2-2-2-2-2-|-2-2-2-2-2-2-2-2-|
|-0-0-0-0-0-0-0-0-|-0-0-0-0-0-0-0-0-|
|-----------------|-----------------|
|
| Q   Q   Q   E E   Q   Q   Q   E E
|-----------------|-----------------|
|-2---2---------2-|-2---2---------2-|
|-2---2---------2-|-2---2---------2-|
|-2---2---------2-|-2---2---------2-|
|-0---0---------0-|-0---0---------0-|
|-----------------|-----------------|


  PM------------------------------------------------------------------|
  E E E E E E E E   E E E E E E E E   E E E E E E E E   E E E E E E E E
|-----------------|-----------------|-----------------|-------------------||
|-----------------|-----------------|-----------------|-------------------||
|-----------------|-----------------|-----------------|-------------------||
|-2-2-2-2-2-2-2-2-|-2-2-2-2-2-2-2-2-|-2-2-2-2-2-2-2-2-|-2-2-2-2-2-2-2-2---||
|-0-0-0-0-0-0-0-0-|-0-0-0-0-0-0-0-0-|-0-0-0-0-0-0-0-0-|-0-0-0-0-0-0-0-0---||
|-----------------|-----------------|-----------------|-------------------||
|
| Q   Q   Q   E E   Q   Q   Q   E E   Q   Q   Q   E E   Q   Q   Q   E S S
|-----------------|-----------------|-----------------|-------------------||
|-2---2---------2-|-2---2---------2-|-2---2---------2-|-2---2---------3-3-||
|-2---2---------2-|-2---2---------2-|-2---2---------2-|-2---2---------2-2-||
|-2---2---------2-|-2---2---------2-|-2---2---------2-|-2---2---------0-0-||
|-0---0---------0-|-0---0---------0-|-0---0---------0-|-0---0-------------||
|-----------------|-----------------|-----------------|-------------------||


   1st - 3rd Verses
    $
    D5
    PM-----------------------------------------
    E E E E E E  E  E     E E E E E E  E  E
||----------------------|---------------------|
||o---------------------|---------------------|
||----------------------|---------------------|
||--7-7-7-7-7-7--7--7---|-7-7-7-7-7-7--7--7---|
||o-5-5-5-5-5-5--5--5---|-5-5-5-5-5-5--5--5---|
||----------------------|---------------------|
|
|   Q   H       +E  S S   Q   H       +E  S S
||----------------------|---------------------|
||o-3---3-------(3)-3-3-|-3---3-------(3)-3-3-|
||--2---2-------(2)-2-2-|-2---2-------(2)-2-2-|
||--0---0-------(0)-0-0-|-0---0-------(0)-0-0-|
||o---------------------|---------------------|
||----------------------|---------------------|


 -------------------------------------|
  E E E E E E  E  E     E E E E E E E E
|---------------------|------------------|
|---------------------|------------------|
|---------------------|------------------|
|-7-7-7-7-7-7--7--7---|-7-7-7-7-7-7-7-7--|
|-5-5-5-5-5-5--5--5---|-5-5-5-5-5-5-5-5--|
|---------------------|------------------|
|
| Q   H       +E  S S   E E E E E E E E
|---------------------|------------------|
|-3---3-------(3)-3-3-|------------------|
|-2---2-------(2)-2-2-|-2-2-7---5---4-5--|
|-0---0-------(0)-0-0-|-0-0-5-0-3-0-2-3--|
|---------------------|------------------|
|---------------------|------------------|


  A5
  PM----------------------------------------
  E E E E  E E E E       E E E E E E E E
|----------------------|-------------------|
|----------------------|-------------------|
|----------------------|-------------------|
|-2-2-2-2--2-2-2-2-----|-2-2-2-2-2-2-2-2---|
|-0-0-0-0--0-0-0-0-----|-0-0-0-0-0-0-0-0---|
|----------------------|-------------------|
|
| Q   Q    Q   E S S     Q   Q   Q   E S S
|----------------------|-------------------|
|-2---2----------2-2---|-2---2---------2-2-|
|-2---2----------2-2---|-2---2---------2-2-|
|-2---2----------2-2---|-2---2---------2-2-|
|-0---0----------0-0---|-0---0---------0-0-|
|----------------------|-------------------|
|
| Gtr III
| H        H         a   W
|----------------------|-------------------|
|----------------------|-------------------|
|----------------------|-------------------|
|----------------------|-------------------|
|---------16s========5-|-------------------|
|----------------------|-------------------|


 -----------------------------------|
  E E E E E E E E     E E E E E E E E
|-------------------|-------------------|
|-------------------|-------------------|
|-------------------|-------------------|
|-2-2-2-2-2-2-2-2---|-2-2-2-2-2-2-2-2---|
|-0-0-0-0-0-0-0-0---|-0-0-0-0-0-0-0-0---|
|-------------------|-------------------|
|
| Q   Q   Q   E S S   Q   Q   Q   E S S
|-------------------|-------------------|
|-2---2---------2-2-|-2---2---------3-3-|
|-2---2---------2-2-|-2---2---------2-2-|
|-2---2---------2-2-|-2---2---------0-0-|
|-0---0---------0-0-|-0---0-------------|
|-------------------|-------------------|
|
| W                   W
|-------------------|-------------------|
|-------------------|-------------------|
|-------------------|-------------------|
|-------------------|-------------------|
|-------------------|-------------------|
|-------------------|-------------------|


  D5
  PM-----------------------------------------
  E E E E E E  E  E     E E E E E E  E  E
|---------------------|---------------------|
|---------------------|---------------------|
|---------------------|---------------------|
|-7-7-7-7-7-7--7--7---|-7-7-7-7-7-7--7--7---|
|-5-5-5-5-5-5--5--5---|-5-5-5-5-5-5--5--5---|
|---------------------|---------------------|
|
| Q   H       +E  S S   Q   H       +E  S S
|---------------------|---------------------|
|-3---3-------(3)-3-3-|-3---3-------(3)-3-3-|
|-2---2-------(2)-2-2-|-2---2-------(2)-2-2-|
|-0---0-------(0)-0-0-|-0---0-------(0)-0-0-|
|---------------------|---------------------|
|---------------------|---------------------|


 -------------------------------------|
  E E E E E E  E  E     E E E E E E E E
|---------------------|-----------------|
|---------------------|-----------------|
|---------------------|-----------------|
|-7-7-7-7-7-7--7--7---|-7-7-7-7-7-7-7-7-|
|-5-5-5-5-5-5--5--5---|-5-5-5-5-5-5-5-5-|
|---------------------|-----------------|
|
| Q   H       +E  S S   E E E E E E E E
|---------------------|-----------------|
|-3---3-------(3)-3-3-|-----------------|
|-2---2-------(2)-2-2-|-2-2-7---5---4-5-|
|-0---0-------(0)-0-0-|-0-0-5-0-3-0-2-3-|
|---------------------|-----------------|
|---------------------|-----------------|


  A5
  PM-------------------------------------
  E E E E E E E E     E E E E E E E E
|-------------------|-------------------|
|-------------------|-------------------|
|-------------------|-------------------|
|-2-2-2-2-2-2-2-2---|-2-2-2-2-2-2-2-2---|
|-0-0-0-0-0-0-0-0---|-0-0-0-0-0-0-0-0---|
|-------------------|-------------------|
|
| Q   Q   Q   E S S   Q   Q   Q   E S S
|-------------------|-------------------|
|-2---2---------2-2-|-2---2---------2-2-|
|-2---2---------2-2-|-2---2---------2-2-|
|-2---2---------2-2-|-2---2---------2-2-|
|-0---0---------0-0-|-0---0---------0-0-|
|-------------------|-------------------|
|
| Gtr III
| W                   W
|-------------------|-------------------|
|-------------------|-------------------|
|-------------------|-------------------|
|-------------------|-------------------|
|-------------------|-------------------|
|-------------------|-------------------|


 --------------------------------------|
  E E E E  E E E E       E E E E E E E E
|----------------------|------------------|
|----------------------|------------------|
|----------------------|------------------|
|-2-2-2-2--2-2-2-2-----|-2-2-2-2-2-2-2-2--|
|-0-0-0-0--0-0-0-0-----|-0-0-0-0-0-0-0-0--|
|----------------------|------------------|
|
| Q   Q    Q   E S S     Q   Q   H
|----------------------|------------------|
|-2---2----------2-2---|-2---2------------|
|-2---2----------2-2---|-2---2------------|
|-2---2----------2-2---|-2---2------------|
|-0---0----------0-0---|-0---0------------|
|----------------------|------------------|
|
| H        H         a   W
|----------------------|------------------|
|----------------------|------------------|
|----------------------|------------------|
|----------------------|------------------|
|---------16s========5-|------------------|
|----------------------|------------------|


                                               To Coda
  B5                                  E5
  PM----------------------------------------------------------------------|
  E E E E E E E E   E E E E E E E E   E E E E E E E E     E  E E E E E  E E
|-----------------|-----------------|------------------|-----------------------|
|-----------------|-----------------|------------------|-----------------------|
|-----------------|-----------------|------------------|-----------------------|
|-4-4-4-4-4-4-4-4-|-4-4-4-4-4-4-4-4-|-9-9-9-9-9-9-9-9--|--9--9-9-9-9-9--9-9----|
|-2-2-2-2-2-2-2-2-|-2-2-2-2-2-2-2-2-|-7-7-7-7-7-7-7-7--|--7--7-7-7-7-7--7-7----|
|-----------------|-----------------|------------------|-----------------------|
|
| Q   Q   H         Q   Q   H         Q   Q   Q.    E     E  E E Q   E  Q   a
|-----------------|-----------------|------------------|-----------------------|
|-----------------|-----------------|------------------|-----------------------|
|-4---2---4-------|-4---2---4S======|=9---7---9-----9--|-----7---9---9--9s==4--|
|-4---2---4-------|-4---2---4S======|=9---7---9-----9--|-----7---9---9--9s==4--|
|-----------------|-----------------|------------------|-----------------------|
|-----------------|-----------------|------------------|-----------------------|
|
| Q   E E E E E E   E E Q   H         Q   Q   E E E E    +Q    E E E Q.
|-----------------|-----------------|------------------|-----------------------|
|-----------------|-----------------|------------------|-----------------------|
|-----4-4-2-------|---2-2---4-------|-9----------------|-----------------------|
|-----------2h4-4-|-4---------------|-9---7---7h9---9--|-(9)---7h9-7h9---------|
|-----------------|-----------------|-------------7----|--7----7---7-----------|
|-----------------|-----------------|------------------|-----------------------|
                                                          Q    Q   H


  1.
  A5
  PM-------------------------------------
  E E E E E E E E     E E E E E E E E
|-------------------|-------------------|
|-------------------|-------------------|
|-------------------|-------------------|
|-2-2-2-2-2-2-2-2---|-2-2-2-2-2-2-2-2---|
|-0-0-0-0-0-0-0-0---|-0-0-0-0-0-0-0-0---|
|-------------------|-------------------|
|
| Q   Q   Q   E S S   Q   Q   Q   E S S
|-------------------|-------------------|
|-2---2---------2-2-|-2---2---------2-2-|
|-2---2---------2-2-|-2---2---------2-2-|
|-2---2---------2-2-|-2---2---------2-2-|
|-0---0---------0-0-|-0---0---------0-0-|
|-------------------|-------------------|


 -----------------------------------|
  E E E E E E E E     E E E E E E E E
|-------------------|---------------------||
|-------------------|--------------------o||
|-------------------|---------------------||
|-2-2-2-2-2-2-2-2---|-2-2-2-2-2-2-2-2-----||
|-0-0-0-0-0-0-0-0---|-0-0-0-0-0-0-0-0----o||
|-------------------|---------------------||
|
| Q   Q   Q   E S S   Q   Q   Q   E S S
|-------------------|---------------------||
|-2---2---------2-2-|-2---2---------3-3--o||
|-2---2---------2-2-|-2---2---------2-2---||
|-2---2---------2-2-|-2---2---------0-0---||
|-0---0---------0-0-|-0---0--------------o||
|-------------------|---------------------||


                                Guitar Solo
  2.
  D5                             G5
                              Gtr III
  Q  Q  E E Q    Q  Q  E E Q     Q  E E Q  E E   +Q   E E Q  E E
|--------------|--------------||---------------|-----------------|
|--------------|--------------||---------------|-----------------|
|--------------|--------------||---------------|-----------------|
|-7--7----7----|-7--7--7-7-7--||--------3----5-|-(5)------3----5-|
|-5--5----5----|-5--5--5-5-5--||----3h5----5---|------3h5----5---|
|--------------|--------------||-3-------------|-----------------|
|
| Q  Q  E E Q    Q  Q  E E Q     W                W
|--------------|--------------||---------------|-----------------|
|--------------|--------------||---------------|-----------------|
|--------------|--------------||---------------|-----------------|
|-7--7----7----|-7--7--7-7-7--||-5-------------|--5--------------|
|-5--5----5----|-5--5--5-5-5--||-5-------------|--5--------------|
|--------------|--------------||-3-------------|--3--------------|


                                         C5
  +Q   E E Q  E E   +Q   E   +E  Q  Q    Q  E E Q  E E   +Q   E E Q  E E
|-----------------|--------------3-----|---------------|-----------------|
|-----------------|--------------------|---------------|-----------------|
|-----------------|------5b7-(5)----0--|--------3----5-|-(5)------3----5-|
|-(5)------3----5-|-(5)----------------|----3h5----5---|------3h5----5---|
|------3h5----5---|--------------------|-3-------------|-----------------|
|-----------------|--------------------|---------------|-----------------|
|
|  W                 W                   W                W
|-----------------|--------------------|---------------|-----------------|
|-----------------|--------------------|---------------|-----------------|
|-----------------|--------------------|-5-------------|--5--------------|
|--5--------------|--5-----------------|-5-------------|--5--------------|
|--5--------------|--5-----------------|-3-------------|--3--------------|
|--3--------------|--3-----------------|---------------|-----------------|


                                     G5
  +Q   E E Q  E E   +Q   E E Q  Q    Q  E E Q  E E   +Q   E E Q  E E
|-----------------|----------------|---------------|-----------------|
|-----------------|----------------|---------------|-----------------|
|-(5)------3----5-|-(5)------3-----|---------------|-----------------|
|------3h5----5---|------3h5----5--|--------3----5-|-(5)------3----5-|
|-----------------|----------------|----3h5----5---|------3h5----5---|
|-----------------|----------------|-3-------------|-----------------|
|
|  W                 W               W                W
|-----------------|----------------|---------------|-----------------|
|-----------------|----------------|---------------|-----------------|
|--5--------------|--5-------------|---------------|-----------------|
|--5--------------|--5-------------|-5-------------|--5--------------|
|--3--------------|--3-------------|-5-------------|--5--------------|
|-----------------|----------------|-3-------------|--3--------------|


                                         C5
  +Q   E E Q  E E   +Q   E   +E  Q  Q    Q  E E Q  E E   +Q   E E Q  E E
|-----------------|--------------3-----|---------------|-----------------|
|-----------------|--------------------|---------------|-----------------|
|-----------------|------5b7-(5)----0--|--------3----5-|-(5)------3----5-|
|-(5)------3----5-|-(5)----------------|----3h5----5---|------3h5----5---|
|------3h5----5---|--------------------|-3-------------|-----------------|
|-----------------|--------------------|---------------|-----------------|
|
|  W                 W                   W                W
|-----------------|--------------------|---------------|-----------------|
|-----------------|--------------------|---------------|-----------------|
|-----------------|--------------------|-5-------------|--5--------------|
|--5--------------|--5-----------------|-5-------------|--5--------------|
|--5--------------|--5-----------------|-3-------------|--3--------------|
|--3--------------|--3-----------------|---------------|-----------------|


  +Q   E E Q  E E   +Q   E   +E  Q  Q
|-----------------|--------------3-----|
|-----------------|--------------3-----|
|-(5)------3----5-|-(5)--5b7-(5)----0--|
|------3h5----5---|--------------------|
|-----------------|--------------------|
|-----------------|--------------------|
|
|  W                 W
|-----------------|--------------------|
|-----------------|--------------------|
|--5--------------|--5-----------------|
|--5--------------|--5-----------------|
|--3--------------|--3-----------------|
|-----------------|--------------------|


  D5
  Q  Q  Q   E  E     +E  E E E Q   E  E
|------------------|------------------------|
|-------1------3---|-(3)-------1------3-----|
|----2------2------|-------0h2-----2--------|
|-0----------------|-----0------------------|
|------------------|------------------------|
|------------------|------------------------|
|
| Q  H     +E  S S    Q    H      +E  S S
|------------------|------------------------|
|-3--3-----(3)-3-3-|--3----3------(3)-3-3---|
|-2--2-----(2)-2-2-|--2----2------(2)-2-2---|
|-0--0-----(0)-0-0-|--0----0------(0)-0-0---|
|------------------|------------------------|
|------------------|------------------------|


                                           Interlude
                                            A5
                                         Gtr I
                                            PM------------|
  +E  E E E Q   E  E     +E  E E E Q  Q     E E E E E E E E
|----------------------|-----------------||------------------|
|-(3)-------1------3---|-(3)-------1-----||------------------|
|-------0h2-----2------|-------0h2----2--||------------------|
|-----0----------------|-----0-----------||-2-2-2-2-2-2-2-2--|
|----------------------|-----------------||-0-0-0-0-0-0-0-0--|
|----------------------|-----------------||------------------|
|
|  Q    H      +E  S S    W                 Q   Q   Q   E E
|----------------------|-----------------||------------------|
|--3----3------(3)-3-3-|--3--------------||-2---2---------2--|
|--2----2------(2)-2-2-|--2--------------||-2---2---------2--|
|--0----0------(0)-0-0-|--0--------------||-2---2---------2--|
|----------------------|-----------------||-0---0---------0--|
|----------------------|-----------------||------------------|


  PM------------------------------------------------|
  E E E E E E E E   E E E E E E E E   E E E E E E E E
|-----------------|-----------------|-----------------|
|-----------------|-----------------|-----------------|
|-----------------|-----------------|-----------------|
|-2-2-2-2-2-2-2-2-|-2-2-2-2-2-2-2-2-|-2-2-2-2-2-2-2-2-|
|-0-0-0-0-0-0-0-0-|-0-0-0-0-0-0-0-0-|-0-0-0-0-0-0-0-0-|
|-----------------|-----------------|-----------------|
|
| Q   Q   Q   E E   Q   Q   Q   E E   Q   Q   Q   E E
|-----------------|-----------------|-----------------|
|-2---2---------2-|-2---2---------2-|-2---2---------2-|
|-2---2---------2-|-2---2---------2-|-2---2---------2-|
|-2---2---------2-|-2---2---------2-|-2---2---------2-|
|-0---0---------0-|-0---0---------0-|-0---0---------0-|
|-----------------|-----------------|-----------------|


                                                              D.S. al Coda
  PM------------------------------------------------------------------|
  E E E E E E E E   E E E E E E E E   E E E E E E E E   E E E E E E E E
|-----------------|-----------------|-----------------|---------------------||
|-----------------|-----------------|-----------------|---------------------||
|-----------------|-----------------|-----------------|---------------------||
|-2-2-2-2-2-2-2-2-|-2-2-2-2-2-2-2-2-|-2-2-2-2-2-2-2-2-|-2-2-2-2-2-2-2-2-----||
|-0-0-0-0-0-0-0-0-|-0-0-0-0-0-0-0-0-|-0-0-0-0-0-0-0-0-|-0-0-0-0-0-0-0-0-----||
|-----------------|-----------------|-----------------|---------------------||
|
| Q   Q   Q   E E   Q   Q   Q   E E   Q   Q   Q   E E   Q   Q   Q   E S S
|-----------------|-----------------|-----------------|---------------------||
|-2---2---------2-|-2---2---------2-|-2---2---------2-|-2---2---------3-3---||
|-2---2---------2-|-2---2---------2-|-2---2---------2-|-2---2---------2-2---||
|-2---2---------2-|-2---2---------2-|-2---2---------2-|-2---2---------0-0---||
|-0---0---------0-|-0---0---------0-|-0---0---------0-|-0---0---------------||
|-----------------|-----------------|-----------------|---------------------||


  &
  E5                  A5
  PM--------------------------------------------------------------------|
  E E E E  E  E E E   E E E E E E E E   E E E E E E E E   E E E E E E E E
|-------------------|-----------------|-----------------|------------------|
|-------------------|-----------------|-----------------|------------------|
|-------------------|-----------------|-----------------|------------------|
|-9-9-9-9--9--9-9-9-|-2-2-2-2-2-2-2-2-|-2-2-2-2-2-2-2-2-|-2-2-2-2-2-2-2-2--|
|-7-7-7-7--7--7-7-7-|-0-0-0-0-0-0-0-0-|-0-0-0-0-0-0-0-0-|-0-0-0-0-0-0-0-0--|
|-------------------|-----------------|-----------------|------------------|
|
| E E E E +Q.     E   Q   Q   Q   E E   Q   Q   Q   E E   Q   Q   Q   E E
|-------------------|-----------------|-----------------|------------------|
|-------------------|-2---2---------2-|-2---2---------2-|-2---2---------2--|
|---7---9-(9)-----2-|-2---2---------2-|-2---2---------2-|-2---2---------2--|
|---7---9-(9)-----2-|-2---2---------2-|-2---2---------2-|-2---2---------2--|
|-----------------0-|-0---0---------0-|-0---0---------0-|-0---0---------0--|
|-------------------|-----------------|-----------------|------------------|
|
| Gtr III
| E E E E +H          W                 W                 W
|-------------------|-----------------|-----------------|------------------|
|-------------------|-----------------|-----------------|------------------|
|---7---9-(9)-------|-----------------|-----------------|------------------|
|---7---9-(9)-------|-----------------|-----------------|------------------|
|-------------------|-----------------|-----------------|------------------|
|-------------------|-----------------|-----------------|------------------|


  PM---------------------------------------------------
  E E E E E E E E   E E E E E E E E   E E E E E E E E
|-----------------|-----------------|-----------------|
|-----------------|-----------------|-----------------|
|-----------------|-----------------|-----------------|
|-2-2-2-2-2-2-2-2-|-2-2-2-2-2-2-2-2-|-2-2-2-2-2-2-2-2-|
|-0-0-0-0-0-0-0-0-|-0-0-0-0-0-0-0-0-|-0-0-0-0-0-0-0-0-|
|-----------------|-----------------|-----------------|
|
| Q   Q   Q   E E   Q   Q   Q   E E   Q   Q   Q   E E
|-----------------|-----------------|-----------------|
|-2---2---------2-|-2---2---------2-|-2---2---------2-|
|-2---2---------2-|-2---2---------2-|-2---2---------2-|
|-2---2---------2-|-2---2---------2-|-2---2---------2-|
|-0---0---------0-|-0---0---------0-|-0---0---------0-|
|-----------------|-----------------|-----------------|


 ---------------------------------|
  E E E E E E E E   E E E E E E E E
|-----------------|-------------------||
|-----------------|-------------------||
|-----------------|-------------------||
|-2-2-2-2-2-2-2-2-|-2-2-2-2-2-2-2-2---||
|-0-0-0-0-0-0-0-0-|-0-0-0-0-0-0-0-0---||
|-----------------|-------------------||
|
| Q   Q   Q   E E   Q   Q   Q   E E
|-----------------|-------------------||
|-2---2---------2-|-2---2---------2---||
|-2---2---------2-|-2---2---------2---||
|-2---2---------2-|-2---2---------2---||
|-0---0---------0-|-0---0---------0---||
|-----------------|-------------------||


 Outro
  A5
  PM----------------------------------------------------------------------|
  E E E E E E E E    E  E E E E E E E   E E E E E E E E    E  E E E E E E E
|-----------------|-------------------|-----------------|--------------------|
|-----------------|-------------------|-----------------|--------------------|
|-----------------|-------------------|-----------------|--------------------|
|-2-2-2-2-2-2-2-2-|--2--2-2-2-2-2-2-2-|-2-2-2-2-2-2-2-2-|--2--2-2-2-2-2-2-2--|
|-0-0-0-0-0-0-0-0-|--0--0-0-0-0-0-0-0-|-0-0-0-0-0-0-0-0-|--0--0-0-0-0-0-0-0--|
|-----------------|-------------------|-----------------|--------------------|
|
| Q   Q   Q   E E    H        Q   E E   H       Q   E E    H        Q   E E
|-----------------|-------------------|-----------------|--------------------|
|-2---2---------2-|-----------------2-|---------------2-|-----------------2--|
|-2---2---------2-|-----------------2-|---------------2-|-----------------2--|
|-2---2---------2-|-----------------2-|---------------2-|-----------------2--|
|-0---0---------0-|-----------------0-|---------------0-|-----------------0--|
|-----------------|-------------------|-----------------|--------------------|
|
| Gtr III
| Q   Q   Q   E E   +E  E Q   Q   E E   Q   Q   Q   E E   +E  E Q   Q   E E
|-----------------|-------------------|-----------------|--------------------|
|-----------------|-------------------|-----------------|--------------------|
|-----------------|-------------------|-----------------|--------------------|
|-----7---5-----7-|-(7)---5---7---5-7-|-----7---5-----7-|-(7)---5---7---5-7--|
|-0-----------0---|-----0-------------|-0-----------0---|-----0--------------|
|-----------------|-------------------|-----------------|--------------------|


  PM----------------------------------------------------------------------|
  E E E E E E E E    E  E E E E E E E   E E E E E E E E    E  E E E E E E E
|-----------------|-------------------|-----------------|--------------------|
|-----------------|-------------------|-----------------|--------------------|
|-----------------|-------------------|-----------------|--------------------|
|-2-2-2-2-2-2-2-2-|--2--2-2-2-2-2-2-2-|-2-2-2-2-2-2-2-2-|--2--2-2-2-2-2-2-2--|
|-0-0-0-0-0-0-0-0-|--0--0-0-0-0-0-0-0-|-0-0-0-0-0-0-0-0-|--0--0-0-0-0-0-0-0--|
|-----------------|-------------------|-----------------|--------------------|
|
| H       Q   E E    H        Q   E E   Q   Q   Q   E E    H        Q   E E
|-----------------|-------------------|-----------------|--------------------|
|---------------2-|-----------------2-|-2-------------2-|-----------------2--|
|---------------2-|-----------------2-|-2-------------2-|-----------------2--|
|---------------2-|-----------------2-|-2-------------2-|-----------------2--|
|---------------0-|-----------------0-|-0-------------0-|-----------------0--|
|-----------------|-------------------|-----------------|--------------------|
|
| Q   Q   Q   E E   +E  E Q   Q   E E   Q   Q   Q   E E   +E  E Q   Q   E E
|-----------------|-------------------|-----------------|--------------------|
|-----------------|-------------------|-----------------|--------------------|
|-----------------|-------------------|-----------------|--------------------|
|-----7---5-----7-|-(7)---5---7---5-7-|-----7---5-----7-|-(7)---5---7---5-7--|
|-0-----------0---|-----0-------------|-0-----------0---|-----0--------------|
|-----------------|-------------------|-----------------|--------------------|


  PM----------------------------------------------------------------------|
  E E E E E E E E    E  E E E E E E E   E E E E E E E E    E  E E E E E E E
|-----------------|-------------------|-----------------|--------------------|
|-----------------|-------------------|-----------------|--------------------|
|-----------------|-------------------|-----------------|--------------------|
|-2-2-2-2-2-2-2-2-|--2--2-2-2-2-2-2-2-|-2-2-2-2-2-2-2-2-|--2--2-2-2-2-2-2-2--|
|-0-0-0-0-0-0-0-0-|--0--0-0-0-0-0-0-0-|-0-0-0-0-0-0-0-0-|--0--0-0-0-0-0-0-0--|
|-----------------|-------------------|-----------------|--------------------|
|
| Q   Q   Q   E E    H        Q   E E   Q   Q   Q   E E    H        Q   E E
|-----------------|-------------------|-----------------|--------------------|
|-2-------------2-|-----------------2-|-2-------------2-|-----------------2--|
|-2-------------2-|-----------------2-|-2-------------2-|-----------------2--|
|-2-------------2-|-----------------2-|-2-------------2-|-----------------2--|
|-0-------------0-|-----------------0-|-0-------------0-|-----------------0--|
|-----------------|-------------------|-----------------|--------------------|
|
| Q   Q   Q   E E   +E  E Q   Q   E E   Q   Q   Q   E E   +E  E Q   Q   E E
|-----------------|-------------------|-----------------|--------------------|
|-----------------|-------------------|-----------------|--------------------|
|-----------------|-------------------|-----------------|--------------------|
|-----7---5-----7-|-(7)---5---7---5-7-|-----7---5-----7-|-(7)---5---7---5-7--|
|-0-----------0---|-----0-------------|-0-----------0---|-----0--------------|
|-----------------|-------------------|-----------------|--------------------|


                                        A
  PM--------------------------------|
  E E E E E E E E    E  E E E E E E E   W              W
|-----------------|-------------------|--------------|-------------*|
|-----------------|-------------------|--------------|-------------*|
|-----------------|-------------------|--------------|-------------*|
|-2-2-2-2-2-2-2-2-|--2--2-2-2-2-2-2-2-|--------------|-------------*|
|-0-0-0-0-0-0-0-0-|--0--0-0-0-0-0-0-0-|--------------|-------------*|
|-----------------|-------------------|--------------|-------------*|
|
| Q   Q   Q   E E    H        Q   E E   Q  Q  Q  E E   E E Q  H
|-----------------|-------------------|--------------|-------------*|
|-2-------------2-|-----------------2-|-2----------2-|-2-----------*|
|-2-------------2-|-----------------2-|-2----------2-|-2-----------*|
|-2-------------2-|-----------------2-|-2----------2-|-2-----------*|
|-0-------------0-|-----------------0-|-0----------0-|-0-----------*|
|-----------------|-------------------|--------------|-------------*|
|
| Q   Q   Q   E E   +E  E Q   Q   E E   Q  Q  Q  E E   W
|-----------------|-------------------|--------------|-------------*|
|-----------------|-------------------|--------------|-------------*|
|-----------------|-------------------|--------------|-------------*|
|-----7---5-----7-|-(7)---5---7---5-7-|----7--5----7-|-------------*|
|-0-----------0---|-----0-------------|-0--------0---|-------------*|
|-----------------|-------------------|--------------|-------------*|


Duration Legend
---------------
W - whole; H - half; Q - quarter; E - 8th; S - 16th; T - 32nd; X - 64th; a - acciaccatura
+ - note tied to previous; . - note dotted; .. - note double dotted
Uncapitalized letters represent notes that are staccato (1/2 duration)
Irregular groupings are notated above the duration line
Duration letters will always appear directly above the note/fret number it represents the
duration for.  Duration letters with no fret number below them represent rests.  Multi-
bar rests are notated in the form Wxn, where n is the number of bars to rest for.  Low
melody durations appear below the staff

Tablature Legend
----------------
 h   - hammer-on
 p   - pull-off
 b   - bend
 pb  - pre-bend
 r   - bend release (if no number after the r, then release immediately)
 /\  - slide into or out of (from/to "nowhere")
 s   - legato slide
 S   - shift slide
  - natural harmonic
[n]  - artificial harmonic
n(n) - tapped harmonic
 ~   - vibrato
 tr  - trill
 T   - tap
 TP  - trem. picking
 PM  - palm muting
\n/  - tremolo bar dip; n = amount to dip
 \n  - tremolo bar down
 n/  - tremolo bar up
/n\  - tremolo bar inverted dip
 =   - hold bend; also acts as connecting device for hammers/pulls
 <>  - volume swell (louder/softer)
 x   - on rhythm slash represents muted slash
 o   - on rhythm slash represents single note slash

Misc Legend
-----------
 |  - bar
||  - double bar
||o - repeat start
o|| - repeat end
*|  - double bar (ending)
 :  - bar (freetime)
 $  - Segno
 &  - Coda
Tempo markers -  = BPM(8/16=s8/s16), where s8 = swing 8ths, s16 = swing 16ths
Добавлено: 20.10.2015
Другие материалы по этой песне:

Страница создана 14.05.2012
http://primanota.ru/zz-top/bad-girl-chords.htm
Привет, Гость.
Предлагаем пройти революционный курс по гитаре.
Подарок от PrimaNota.Ru, забирай!