PrimaNota.ru - самый крупный в мире бесплатный архив песенных текстов, аккордов, табулатур и нот


Zutons - Zuton Fever - текст песни, таба, видео

Регистрация Запомнить меня
Войти через:  Facebook Google Twitter Vk Yandex Mail.ru

Zutons - Zuton Fever - текст песни, таба, видео

Печатать
Просмотров: 183
Авторы музыки: David McCabe, Sean Payne, Russell Pritchard, Boyan Chowdhury, Abi Harding
Авторы текста: David McCabe
I cant believe theres not one single Zuton tab on here!
If you have any prolems or questions e-mail at in_your_world@hotmail.co.uk
WOOOOOOOOOOOOOOO FIRST ZUTON TAB ON HERE!!!!!!!!!
---------------------------------------------------------|
---------------------------------------------------------|
---------------------------------------------------------|
-4---2-4-2-4---2-4-2-4-2-------------2-------------2-----|
-------------------------4-2-4---2-4---4---2-4-2-4---4---|
---------------------------------------------------------|

----------------------------------------------------------R
----------------------------------------------------------E
----------------------------------------------------------P
-------------------------------------2-------------2------E
-3-----3---3-----3---3---3---4---2-4---4---2-4-2-4---4----A
-----2---2-----2---2---2----------------------------------T

then while u play that guitar 2 plays this with a slide:
-----------------------------------------------------------------------|
-5\-2----------5\-2------------------------------5-7-------------------|
-5\-2----------5\-2-------------2/-5-------------5-6----------2/-5-----|
-----------------------------------------------------------------------|
-----------------------------------------------------------------------|
-----------------------------------------------------------------------|
The vocals come in at the end of this:

Verse 1:
You know i get a funny feeling,
Like an epidemic running through my head,
Ya know i got that feeling, it's the best,
Got the Zuton Fever in my head
___________**Sax**____________
Ya know i feel just like i'm ten years old,
Ya know i'm looking young and good again,
Got the Zuton Fever in my head.

When the Sax comes in guitar 1 plays this:
------------------------------------------|R
-7--5-----7--5-----7--5-----7-------------|E
-x--x--6--x--x--6--x--x--6--6-----Sax-----|P
-6--6--6--6--6--6--6--6--6--6-----Fill----|E
-4--4--4--4--4--4--4--4--4--4-------------|A
------------------------------------------|T

Verse2:
It starts to make it's way upstairs,
It's like pollution in my veins and in my hair,
Ya know where it comes from i don't care,
Let me know if you get some i'll be there.
________________**Sax**__________________
Oh father, father, i have sinned,
I've let myself down time and time again,
Ya know the Zuton Fevers made me thin,
And now i've got to clean my flaky skin

When the Sax comes in guitar 1 plays this:
------------------------------------------|R
-7--5-----7--5-----7--5-----7-------------|E
-x--x--6--x--x--6--x--x--6--6-----Sax-----|P
-6--6--6--6--6--6--6--6--6--6-----Fill----|E
-4--4--4--4--4--4--4--4--4--4-------------|A
------------------------------------------|T

Verse3:
Oh doctor, doctor help and let me know,
If you can find a cure or anecdote,
You know i've always been true to you my friend,
Hope that you can help me out again.
_________________**Bass**_________________
You know i get a funny feeling,
Like an epidemic running through my head,
Ya know i got that feeling it's the best,
Got the Zuton Fever in my head!

Pre solo:
They use lots of whammy bar stuff and effects(well not effects as such but u know wat i
mean)but i havent been able to tab it-ive just done the rest of the song--dont rush me!
lol So im really sorry bout that, if ne1 knows it can u plzzzzzz send it to me, id b
realy grateful!!
_____________**Sax**________________
Solo:
Aagin,same with the pre solo, i havent been able to tab it IM sooooo sowwwy but if ne1
knowz it id be realy grateful if u could send it to me!!Thanx sooo much!!xxx

Outro:
Now this I know!lol
---------------------2--------------------|
----------------2-5-----5--2--------------|
----------2--4---------------4---2--------|
----2--4------------------------------4---|
-4----------------------------------------|
------------------------------------------|

You where to e-mail me if u hav ne probs!
L8RZ!! XXX
Добавлено: 28.06.2012
Другие материалы по этой песне:

Страница создана 17.05.2012
http://primanota.ru/zutons/zuton-fever-chords.htm
Привет, Гость.
Предлагаем пройти революционный курс по гитаре.
Подарок от PrimaNota.Ru, забирай!