PrimaNota.ru - самый крупный в мире бесплатный архив песенных текстов, аккордов, табулатур и нот


Zuri West - I Schenke Dir Mis Herz - аккорды и текст, видео

Регистрация Запомнить меня
Войти через:  Facebook Google Twitter Vk Yandex Mail.ru

Zuri West - I Schenke Dir Mis Herz - аккорды и текст, видео

Печатать
Просмотров: 111
I Schenke Dir Mis Herz
Zuri West
Züri West
"I schänke dir mis Härz"
(Album Züri West, 1994)

Tabbed by: Sydneyfox
Email: sydneyfox86@gmail.com

Tuning: Standard

Intro:
Am C G Em F

Chorus:
Am                      C
I schänke dir mis Härz, meh han i nid du chasch es
G                          Em
ha we de wosch, es isch es guets u es git no 
F
Mängi wo's würd näh, aber dir würd i's gä


Verse 1:
Am                     C
D'Szene isch e chliini Bar irgendwo i dere 
G                      Em
Schtadt u i bschteue e Whiskey, hocke irgendwo 
F
ab wos grad Platz het, luege echli ume wär so umenang 

hocket aber kenne tueni 
Am                 C
nimer hie inne überau hocke Lüt hinger de 
G                     Em
Schampuschüble geng e Frou u e Typ,
F
u nippe am ne Flüte u hange anenanga u rede öppis über nüt 

u nume ig bi allei, hie u 
Am                    C
da wächsletds Liecht, hie u da verschwinde wieder 
G                     Em
zwöi irgendwo u irgendeinisch geit hinde e 
F
dunkelblaue Vorhang uf
Am
hinger em Vorhang het's e Bühni 
      C                    
Uf dr Bühni schteit e Frou wo i de 
G                    Em              F
Ungerhose irgendsone Schou zeigt

Interlude 1 (Guitarsolo with Wah-Pedal) - 2x
e|----------------------------------------------------------------------|
B|-------------------5------8b----8br---------------5-------------------|
G|-------------5--------------------------7--7-7p5-------7----7p5h7-----|
D|--------7-------------------------------------------------------------|
A|----------------------------------------------------------------------|
E|----------------------------------------------------------------------|

e|-------------------------------------8--------------------------------|
B|-------------------5-------8b-----8b-----8br~-------------------------|
G|-------------5--------------------------------------------------------|
D|-------7--------------------------------------------------------------|
A|----------------------------------------------------------------------|
E|----------------------------------------------------------------------|

(Chords during solo: Am C G Em F)

Verse 2:
Am                      C
I luege so chli zue u i hocke so chli da u gschpüre 
G                           Em
plötzlich dassi irgend sone hang ufem chnöi ha, u
F
dräiie mi um u näbe mir hocket eini won i nie vorhär ha gseh 

u fragt öbi alleini sig, u
Am                 C
sie sig o allei, i söu nid überlege, i 
G                         Em
gfau i're no so u sie wöu eifach echli rede, 
F
villecht sött i hie no säge sie gseht schön us - 

sie isch e schöni mit schöne länge haar 
Am                         C
u klar bin i närvös worde, klar han i trunke, u mit
G                                Em
jedem schluck het sie mi no chli schöner afa dünke, u nach
F
jedem glas champagner het sie geng no eis wöue, 

i ha zaut u zaut bis i eifach nümm ha chönne, u ha 
Am                       C
gseit: hey wei mr nid zu mir oder so, u sie het 
G                     Em
gseit: i chönnt di so verwöhne u so ire haub 
F
schtung chönnt i cho u jitz säg mr eifach nume no 

wieviu - säg wieviu - wieviu gisch mr wenn i chume

Chorus:

Guitar 1 keeps playing the interlude part(with Wah-Pedal):
e|----------------------------------------------------------------------|
B|-------------------5------8b----8br---------------5-------------------|
G|-------------5--------------------------7--7-7p5-------7----7p5h7-----|
D|--------7-------------------------------------------------------------|
A|----------------------------------------------------------------------|
E|----------------------------------------------------------------------|

e|-------------------------------------8--------------------------------|
B|-------------------5-------8b-----8b-----8br~-------------------------|
G|-------------5--------------------------------------------------------|
D|-------7--------------------------------------------------------------|
A|----------------------------------------------------------------------|
E|----------------------------------------------------------------------|

Guitar 2 plays the following chords:
Am                      C
I schänke dir mis Härz, meh han i nid du chasch es
G                          Em
ha we de wosch, es isch es guets u es git no 
F
Mängi wo's würd näh, aber dir würd i's gä
Добавлено: 01.09.2013
Другие материалы по этой песне:
  • Аккорды и текст

Страница создана 01.09.2013
http://primanota.ru/zuri-west/i-schenke-dir-mis-herz-chords.htm
Привет, Гость.
Предлагаем пройти революционный курс по гитаре.
Подарок от PrimaNota.Ru, забирай!