PrimaNota.ru - самый крупный в мире бесплатный архив песенных текстов, аккордов, табулатур и нот


Zucchero - Ahum - аккорды и текст, видео

Регистрация Запомнить меня
Войти через:  Facebook Google Twitter Vk Yandex Mail.ru

Zucchero - Ahum - аккорды и текст, видео

Печатать
Просмотров: 179
Ahum
Zucchero
		   AHUM (Zucchero) 
AhSOLum I've got something to tell you FA#m#5
About my DO hea___rt, DO7+ That you SOL9 hold... ahFA#m#5um DO 

....SOL.------..FA#m#5.........DO............DO7+........ 
e----------------------------------------------------------
B------0-----0-------3-----3-------1-----1-------0-----0---
G------0-----0-------2-----2-------0-----0-------0-----0---
D------0-----0-------0-----0-------2-----2-------2-----2---
A------------------------------3-3---3-3-----3-3---3-3-----
E--3-3---3-3-----2-2---2-2---------------------------------
 

SOL C'è qualcosa di me FA#m#5 dentro me che non DO sa___i DO7+
Fino in SOL fondo FA#m#5 ahDOum DO
SOL C'è un giardino che mai FA#m#5 forse mai troveDOra___i DO7+
Dove miSOL__ nascondo FA#m#5 ahDOum DO 


e--------------
B--------------
G-------0-0----
D--0/2------2--
A--------------
E--------------
 LAm7 Io sto con MIm te e non ti RE sento FA#m#5 

e-------------------
B-------------------
G--0---------0-0----
D----4--0/2------2--
A-------------------
E-------------------
 LAm7 You know MIm what I want to RE say 

e------------------------
B--------0-1----0--------
G----0-2-----------2--0--
D--4---------------------
A------------------------
E------------------------
 
after this..
 

...SOL love, after the FA#m#5 rain, ma che bel DO vento DO
Riempimi gli SOL occhi, curve nell'FA#m#5aria, d'oro e d'arDOgento DO
Sono MIm qui, forse piu' in FA#m#5 là, forse già SOL qua__ RE9 RE7
RE7 ohh se vai fino in SOL fondo. FA#m#5 DO DO7+
What do you SOL think about me...FA#m#5 eehhh 
DO What do you think about me? 


e-----------------------
B--------------3-3/5-3--
G------0-2-2/4----------
D--2-2------------------
A-----------------------
E-----------------------
 

SOL C'è qualcosa di me FA#m#5 dentro me che non DO vuo___oi DO7+
Fino in SOL fondo FA#m#5 ahDOum DO
(arpeggia come sopra) 
LAm7 Won't walk MIm out I want to RE stay FA#m#5
LAm7 mmmhh l'aria è ceMImleste come non RE sei 

After this SOL love, after the FA#m#5 rain, ma che bel DO vento DO
Riempimi gli SOL occhi, curve nell'FA#m#5aria, d'oro e d'arDOgento DO
Sono MIm qui, forse piu' in FA#m#5 là, forse chisSOLsa__ RE9
After this SOL love, after this FA#m#5 crying, ma che bel DO tenpo DO
Riempimi gli SOL occhi, gioia nel FA#m#5 pianto, d'oro e d'arDOgento DO
Io sono MIm qui, forse piu' in FA#m#5 là, forse già SOL qua__ RE9 RE7
Ma vai fino in SOL fondo, FA#m#5 DO DO7+
ti prego vai fino in SOL fondo FA#m#5 ahDOum 
     
Добавлено: 19.08.2013
Другие материалы по этой песне:
  • Аккорды и текст

Страница создана 28.07.2012
http://primanota.ru/zucchero/ahum-chords.htm
Привет, Гость.
Предлагаем пройти революционный курс по гитаре.
Подарок от PrimaNota.Ru, забирай!