PrimaNota.ru - самый крупный в мире бесплатный архив песенных текстов, аккордов, табулатур и нот


Zozobra - Heartless Enemy - таба, видео

Регистрация Запомнить меня
Войти через:  Facebook Google Twitter Vk Yandex Mail.ru

Zozobra - Heartless Enemy - таба, видео

Печатать
Просмотров: 83
-------------------------------------------------------------------------------
                             Heartless Enemy - Zozobra
-------------------------------------------------------------------------------
Tabbed by:Broken Ipad
E-mail: darnitcool@yahoo.com

http://www.last.fm/music/Zozobra

Hi, this is my first tab so its sloppy and bad but it tells you how to play so it gets
the job done. I think i have the intro/ main rift perfect but i am having trouble with
the rhythm and if anyone could help that would be nice.

Tuning: Drop D
This part is the rift used throughout the song in the intro and chorus. At the very
beggining of the song just work with the 4th string of the B string. After that it
transitions into this rift below.You will play this twice in the intro and the chorus. 
you should be able to figure it out pretty easy when to play everything so i won't write 
it out.

e|-----------------------------------------------------------------------------------|
B|-4-4/8-9-11-12-12-11-12-14-11-12-11-9-11-9-11-9--------------------------4~--------|
G|----------------------------------------------------12-13-12-9-12-9-12-9-----------|
D|-----------------------------------------------------------------------------------|
A|-----------------------------------------------------------------------------------|
D|-----------------------------------------------------------------------------------|


Ok this part may not be write, it is the backing rift, and id appreciate help with this
part, for whatever reason i am having a lot of trouble here haha. This rift is repeated
throughout the song as well, and is easy to follow, so i wont write down how much to 
play or when to play it.
e|-----------------------------------------------------------------------------|
B|-----------------------------------------------------------------------------|
G|-----------------------------------------------------------------------------|
D|-1-1-1-1~-0-2----------------------------------------------------------------|
A|-1-1-1-1~-0-2----------------------------------------------------------------|
E|-1-1-1-1~-0-2----------------------------------------------------------------|
PM[----------------------------------------------------------------------------|


************************************

| /   slide up
| \   slide down
| h   hammer-on
| p   pull-off
| ~   vibrato
| +   harmonic
| x   Mute note
| b   Bend
| pb  Pre-bend
| br  Bend release
| pbr Pre-bend release
| brb Bend release bend

************************************
Добавлено: 25.10.2013
Другие материалы по этой песне:
  • Аккорды и текст

Страница создана 25.10.2013
http://primanota.ru/zozobra/heartless-enemy-chords.htm
Привет, Гость.
Предлагаем пройти революционный курс по гитаре.
Подарок от PrimaNota.Ru, забирай!