PrimaNota.ru - самый крупный в мире бесплатный архив песенных текстов, аккордов, табулатур и нот


Zooey Deschanel - I Couldve Been Your Girl - бас-таба, видео

Регистрация Запомнить меня
Войти через:  Facebook Google Twitter Vk Yandex Mail.ru

Zooey Deschanel - I Couldve Been Your Girl - бас-таба, видео

Печатать
Просмотров: 58
-------------------------------------------------------------------------------
                 I Could've Been Your Girl - Zooey Deschanel
-------------------------------------------------------------------------------
Tabbed by: Fernando Pasquale
E-mail: pasqualefernando92@gmail.com

This is the way I play it, you can add your own rythm if you like :) enjoy!

Tuning: EADG

Intro:

G|--------------------------------------------------|
D|--------------------------------------------------|
A|--------------------------------------------------|
E|10--10-10--10--7--7-7--7--10--10-10--10--7--7-7--7|

Verse:

G|-------------------------------------------------------------------------------------------------------|
D|-------------------------------------------------------------------------------------------------------|
A|--------------------------------10-10-10-10---------------------10-10-10-10-------------------9-7-0~---| (x2)
E|10-10-10-10-7-7-7-7-10-10-10-10-------------10-10-10-10-7-7-7-7-------------9-9-9-9--7~--7-7~----------|

Chorus:

G|----------------------------------------------------------------------------------------|
D|----------------------------------------------------------------------------------------|
A|------------12-12-12-12-----------------9-9-9-9---------7-7-7-7-0-0-0-0-7-7-7-7-0-0-0-0-|
E|10-10-10-10-------------7-7-7-7-7-7-7-7---------7-7-7-7---------------------------------|

G|--------------------------|
D|--------------------------|
A|9-9-9-9---------7-7-7-7-0~|
E|--------7-7-7-7-----------|

Repeat Verse and chorus just once 

And then: (not sure about this, i'll take any suggestion)

G|-----------------------------------------------------------------------------|
D|-----------------------------------------------------------------------------|
A|-------------------9~-----------------9~----------------7~----7~------0~----0|
E|10~----7~----10~----------10~----7~----------8~----8~------------------------|

Play the chorus 3 times and end with:

G|---------------------|
D|---------------------|
A|9~~------------------|
E|---------------------|



| /  slide up
| \  slide down
| h  hammer-on
| p  pull-off
| ~  vibrato
| +  harmonic
| x  Mute note
===============================================================================
Добавлено: 03.11.2015
Другие материалы по этой песне:
  • Аккорды и текст

Страница создана 03.11.2015
http://primanota.ru/zooey-deschanel/i-couldve-been-your-girl-chords.htm
Привет, Гость.
Предлагаем пройти революционный курс по гитаре.
Подарок от PrimaNota.Ru, забирай!