PrimaNota.ru - самый крупный в мире бесплатный архив песенных текстов, аккордов, табулатур и нот


Zoo Strategies - Untitled Demo - таба, видео

Регистрация Запомнить меня
Войти через:  Facebook Google Twitter Vk Yandex Mail.ru

Zoo Strategies - Untitled Demo - таба, видео

Печатать
Просмотров: 121
Zoo Strategies' Bandcamp:
  http://zoostrategies.bandcamp.com/

Untitled Demo:
  https://www.youtube.com/watch?v=n0EWB0Bq1LU

Tabbed By: crazyguitarman3

Tuning: D A D F# A E



(0:03)
E |---------10--------------10-------------10-------------10----|
A |-----------------10--10----10---10--10----10---10--10----10--|
F#|-13--13----13------8---8-----8----8---8-----8----8---8-----8-|
D |---12--12----12----------------------------------------------|
A |-10--------------------------------------------7-------------|
D |-----------------9--------------7----------------------------|

E |---------10--------------10-------------10-------------10----|
A |-----------------10--10----10---10--10----10---10--10----10--|
F#|-13--13----13------8---8-----8----8---8-----8----8---8-----8-|
D |---12--12----12----------------------------------------------|
A |-10--------------------------------------------7-------------|
D |-----------------9--------------7----------------------------|

E |---------10--------------10-------------10-------------10----|
A |-----------------10--10----10---10--10----10---10--10----10--|
F#|-13--13----13------8---8-----8----8---8-----8----8---8-----8-|
D |---12--12----12----------------------------------------------|
A |-10--------------------------------------------7-------------|
D |-----------------9--------------7----------------------------|

E |---------10--------------10-------------10-------------10----|
A |-----------------10--10----10---10--10----10---10--10----10--|
F#|-13--13----13------8---8-----8----8---8-----8----8---8-----8-|
D |---12--12----12----------------------------------------------|
A |-10--------------------------------------------7-------------|
D |-----------------9--------------7----------------------------|

(0:24)
E |---------5---------5h7h5------------------------------------------------|
A |-----------5-------------5-----------------0----------------------------|
F#|-----8--------8------------5-------------0---0---------------------7N.H-|
D |---7-------------7-----------7---------2--------2----2h4p2p0-------7N.H-|
A |-------------------------------------5-------------5---------2-p0--7N.H-|
D |-5-----5-----------------------0-h-4-------------------------------7N.H-|

E |---------5---------5h7h5------------------------------------------------|
A |-----------5-------------5-----------------0----------------------------|
F#|-----8--------8------------5-------------0---0---------------------7N.H-|
D |---7-------------7-----------7---------2--------2----2h4p2p0-------7N.H-|
A |-------------------------------------5-------------5---------2-p0--7N.H-|
D |-5-----5-----------------------0-h-4-------------------------------7N.H-|

E |---------5---------5h7h5------------------------------------------------|
A |-----------5-------------5-----------------0----------------------------|
F#|-----8--------8------------5-------------0---0---------------------7N.H-|
D |---7-------------7-----------7---------2--------2----2h4p2p0-------7N.H-|
A |-------------------------------------5-------------5---------2-p0--7N.H-|
D |-5-----5-----------------------0-h-4-------------------------------7N.H-|

E |---------5---------5h7h5------------------------------------------------|
A |-----------5-------------5-----------------0----------------------------|
F#|-----8--------8------------5-------------0---0---------------------7N.H-|
D |---7-------------7-----------7---------2--------2----2h4p2p0-------7N.H-|
A |-------------------------------------5-------------5---------2-p0--7N.H-|
D |-5-----5-----------------------0-h-4-------------------------------7N.H-|

(0:50)
E |--------------------------|
A |--------------------------|
F#|-5N.H.----12N.H.----7N.H.-|
D |-5N.H.----12N.H.----7N.H.-|
A |-5N.H.----12N.H.----7N.H.-|
D |-5N.H.----12N.H.----7N.H.-|

(0:52)
E |------------------14T-p-5--------------------------------------------|
A |--------------------------7t-p-5-12T-p-5-h-7-p-5-9T-p-4--------------|
F#|-3--3--x-x-3--3--------------------------------------------7-/-5-p-0-|
D |-x--x--x-x-x--x--------------------------------------------7-/-5-p-0-|
A |-5--5--x-x-5--5--------------------------------------------x---------|
D |-5--5--x-x-5--5-----------------------------------------7--7-p-0-----|

E |---------------------------------------------------|
A |--------------------------------------0---------0--|
F#|-3--3--x-x-3--3--x-x-x--7N.H.----8---------7-------|
D |-x--x--x-x-x--x--x-x-x--7N.H.------0---------0-----|
A |-5--5--x-x-5--5--x-x-x--7N.H.----------------------|
D |-5--5--x-x-5--5--x-x-x--7N.H.--5---------4---------|

E |------------------------------------------------------------------|
A |-----------------12T-p5h7------------------------12T-p5h7---------|
F#|---------12T-p5h7--------12T-p5h7--------12T-p5h7--------12T-p5h7-|
D |-12T-p5h7------------------------12T-p5h7-------------------------|
A |------------------------------------------------------------------|
D |------------------------------------------------------------------|

E |------------------14T-p-5--------------------------------------------|
A |--------------------------7t-p-5-12T-p-5-h-7-p-5-9T-p-4--------------|
F#|-3--3--x-x-3--3--------------------------------------------7-/-5-p-0-|
D |-x--x--x-x-x--x--------------------------------------------7-/-5-p-0-|
A |-5--5--x-x-5--5--------------------------------------------x---------|
D |-5--5--x-x-5--5-----------------------------------------7--7-p-0-----|

E |---------------------------------------------------|
A |--------------------------------------0---------0--|
F#|-3--3--x-x-3--3--x-x-x--7N.H.----8---------7-------|
D |-x--x--x-x-x--x--x-x-x--7N.H.------0---------0-----|
A |-5--5--x-x-5--5--x-x-x--7N.H.----------------------|
D |-5--5--x-x-5--5--x-x-x--7N.H.--5---------4---------|

E |------------------------------------------------------------------|
A |-----------------12T-p5h7------------------------12T-p5h7---------|
F#|---------12T-p5h7--------12T-p5h7--------12T-p5h7--------12T-p5h7-|
D |-12T-p5h7------------------------12T-p5h7-------------------------|
A |------------------------------------------------------------------|
D |------------------------------------------------------------------|

(1:11)
                                         . . . . . . . . . . .
E |------------------------------------------------------------|
A |------------------------------------------------------------|
F#|------------------------------------------------------------|
D |-0-12h14p12---------------------------4-4h5p4---4---2h4p2p0-|
A |-0---------12h14p12---12\9---9\7-7\5--4-------4-------------|
D |-0------------------0------0----------4-----------0---------|

                                         . . . . . . . . .
E |-----------------------------------------------------------------------|
A |-----------------------------------------------------------------------|
F#|--------------------------------------------------------7N.H.-5N.H.----|
D |-0-12h14p12---------------------------4-4h5p4---4---2h4-7N.H.-5N.H.----|
A |-0---------12h14p12---12\9---9\7-7\5--4-------4---------7N.H.-5N.H.----|
D |-0------------------0------0----------4-----------0-----7N.H.-5N.H.----|

                                         . . . . . . . . . . .
E |------------------------------------------------------------|
A |------------------------------------------------------------|
F#|------------------------------------------------------------|
D |-0-12h14p12---------------------------4-4h5p4---4---2h4p2p0-|
A |-0---------12h14p12---12\9---9\7-7\5--4-------4-------------|
D |-0------------------0------0----------4-----------0---------|

                                         . . . . . . . . .
E |-----------------------------------------------------------------------|
A |-----------------------------------------------------------------------|
F#|--------------------------------------------------------7N.H.-5N.H.----|
D |-0-12h14p12---------------------------4-4h5p4---4---2h4-7N.H.-5N.H.----|
A |-0---------12h14p12---12\9---9\7-7\5--4-------4---------7N.H.-5N.H.----|
D |-0------------------0------0----------4-----------0-----7N.H.-5N.H.----|

(1:28)
E |-----------17--17--17--17------------17--17--17--17----------|
A |-----------17--17--17--17------------17--17--17--17----------|
F#|-------12--15--15--15--15--------12--15--15--15--15--------12|
D |-------12--17--17--17--17--------12--17--17--17--17--------12|
A |-------12------------------------12------------------------12|
D |-12h14---------------------12h14---------------------12h14---|

(1:32)
E |-5--5--5--5-xx---------------5--5--5--5-xx---------------|
A |-5--5--5--5-xx---------------5--5--5--5-xx---------------|
F#|-8--8--8--8-xx8--8887-12N.H--8--8--8--8-xx8-8-8-7-7-7-12-|
D |-7--7--7--7-xx7--7777-12N.H--7--7--7--7-xx7-7-7-7-7-7-12-|
A |-5--5--5--5-xx9--999x-12N.H--5--5--5--5-xx9-9-9-x-x-x-12-|
D |-5--5--5--5-xx9--9997-12N.H--5--5--5--5-xx9-9-9-7-7-7-12-|

E |-5--5--5--5-xx---------------5--5--5--5-xx---------------|
A |-5--5--5--5-xx---------------5--5--5--5-xx---------------|
F#|-8--8--8--8-xx8--8887-12N.H--8--8--8--8-xx8-8-8-7-7-7-12-|
D |-7--7--7--7-xx7--7777-12N.H--7--7--7--7-xx7-7-7-7-7-7-12-|
A |-5--5--5--5-xx9--999x-12N.H--5--5--5--5-xx9-9-9-x-x-x-12-|
D |-5--5--5--5-xx9--9997-12N.H--5--5--5--5-xx9-9-9-7-7-7-12-|

(1:51)
E |-----------------------------------------------------|
A |------------12T-p7----------------------12T-/14\12p0-|
F#|----12T-p7h8------12T-p8-----12T-p8p7h8--------------|
D |-----------------------------------------------------|
A |-----------------------------------------------------|
D |-9t-----------------------7t-------------------------|

E |-----------------------------------|
A |-----------------------------------|
F#|---12T-p5p0-7T-7T---12T-p5p0-7T-7T-|
D |------------7T-7T------------7T-7T-|
A |-----------------------------------|
D |-5t---------------5t---------------|

E |-----------------------------------------------------|
A |------------12T-p7----------------------12T-/14\12p0-|
F#|----12T-p7h8------12T-p8-----12T-p8p7h8--------------|
D |-----------------------------------------------------|
A |-----------------------------------------------------|
D |-9t-----------------------7t-------------------------|

E |-----------------------------------|
A |-----------------------------------|
F#|---12T-p5p0-7T-7T---12T-p5p0-7T-7T-|
D |------------7T-7T------------7T-7T-|
A |-----------------------------------|
D |-5t---------------5t---------------|

E |------------|
A |-9-9----7-7-|
F#|-8-8----8-8-|
D |-0-0----0-0-|
A |-x-x----x-x-|
D |-9-9----7-7-|

E |-----------------------------------|
A |-----------------------------------|
F#|---12T-p5p0-7T-7T---12T-p5p0-7T-7T-|
D |------------7T-7T------------7T-7T-|
A |-----------------------------------|
D |-5t---------------5t---------------|

E |------------|
A |-9-9----7-7-|
F#|-8-8----8-8-|
D |-0-0----0-0-|
A |-x-x----x-x-|
D |-9-9----7-7-|

E |-0---0-------0-0-0-0-0-0-0-0-0-0-0-|
A |-5-5---5-----5-5-5-5-5-5-5-5-5-5-5-|
F#|-0-------0---0-0-0-0-0-0-0-0-0-0-0-|
D |-0---------0-0-0-0-0-0-0-0-0-0-0-0-|
A |-0-----------0-0-0-0-0-0-0-0-0-0-0-|
D |-5-----------5-5-5-5-5-5-5-5-5-5-5-|

(2:12)
    .   .   .   .   .   .   .   .   .
E |-------------------------------------|
A |-------------------------------------|
F#|-8---8-8-8-8-3---3-3-3-3-0---0-0-0-0-|
D |-7---7-7-7-7-2---2-2-2-2-0---0-0-0-0-|
A |-9---9-9-9-9-4---4-4-4-4-0---0-0-0-0-|
D |-9---9-9-9-9-4---4-4-4-4-2---2-2-2-2-|

    .   .   .   .   .       .   .   .
E |-------------------------------------|
A |-------------------------------------|
F#|-8---8-8-8-8-3---3-5-5-5-0---0-0-0-0-|
D |-7---7-7-7-7-2---2-2-2-2-0---0-0-0-0-|
A |-9---9-9-9-9-4---4-x-x-x-0---0-0-0-0-|
D |-9---9-9-9-9-4---4-4-4-4-2---2-2-2-2-|

    .   .   .   .   .   .   .   .   .
E |-------------------------------------|
A |-------------------------------------|
F#|-8---8-8-8-8-3---3-3-3-3-0---0-0-0-0-|
D |-7---7-7-7-7-2---2-2-2-2-0---0-0-0-0-|
A |-9---9-9-9-9-4---4-4-4-4-0---0-0-0-0-|
D |-9---9-9-9-9-4---4-4-4-4-2---2-2-2-2-|

    .   .   .   .   .       .   .   .
E |-------------------------------------|
A |-------------------------------------|
F#|-8---8-8-8-8-3---3-5-5-5-0---0-0-0-0-|
D |-7---7-7-7-7-2---2-2-2-2-0---0-0-0-0-|
A |-9---9-9-9-9-4---4-x-x-x-0---0-0-0-0-|
D |-9---9-9-9-9-4---4-4-4-4-2---2-2-2-2-|

    .   .   .   .   .   .   .   .   .
E |-------------------------------------|
A |-------------------------------------|
F#|-8---8-8-8-8-3---3-3-3-3-0---0-0-0-0-|
D |-7---7-7-7-7-2---2-2-2-2-0---0-0-0-0-|
A |-9---9-9-9-9-4---4-4-4-4-0---0-0-0-0-|
D |-9---9-9-9-9-4---4-4-4-4-2---2-2-2-2-|

    .   .   .   .   .       .   .   .
E |-------------------------------------|
A |-------------------------------------|
F#|-8---8-8-8-8-3---3-5-5-5-0---0-0-0-0-|
D |-7---7-7-7-7-2---2-2-2-2-0---0-0-0-0-|
A |-9---9-9-9-9-4---4-x-x-x-0---0-0-0-0-|
D |-9---9-9-9-9-4---4-4-4-4-2---2-2-2-2-|

    .   .   .   .   .   .   .   .   .
E |-------------------------------------|
A |-------------------------------------|
F#|-8---8-8-8-8-3---3-3-3-3-0---0-0-0-0-|
D |-7---7-7-7-7-2---2-2-2-2-0---0-0-0-0-|
A |-9---9-9-9-9-4---4-4-4-4-0---0-0-0-0-|
D |-9---9-9-9-9-4---4-4-4-4-2---2-2-2-2-|

    .   .   .   .   .       .   .   .
E |-------------------------------------|
A |-------------------------------------|
F#|-8---8-8-8-8-3---3-5-5-5-0---0-0-0-0-|
D |-7---7-7-7-7-2---2-2-2-2-0---0-0-0-0-|
A |-9---9-9-9-9-4---4-x-x-x-0---0-0-0-0-|
D |-9---9-9-9-9-4---4-4-4-4-2---2-2-2-2-|

(2:49)
E |--------------------------------------|
A |--------------------------------------|
F#|--------------------------------------|
D |---9T-p5p0---------9T-p0-12T-p0-9T -p0|
A |----------9T-p5p0h4-------------------|
D |-5t-----------------------------------|

E |--------------------------------------|
A |--------------------------------------|
F#|--------------------------------------|
D |---9T-p5p0---------9T-p0-12T-p0-9T -p0|
A |----------9T-p5p0h4-------------------|
D |-5t-----------------------------------|

E |--------------------------------------|
A |--------------------------------------|
F#|--------------------------------------|
D |---9T-p5p0---------9T-p0-12T-p0-9T -p0|
A |----------9T-p5p0h4-------------------|
D |-5t-----------------------------------|

E |--------------------------------------|
A |--------------------------------------|
F#|--------------------------------------|
D |---9T-p5p0---------9T-p0-12T-p0-9T -p0|
A |----------9T-p5p0h4-------------------|
D |-5t-----------------------------------|

E |--------------------------------------|
A |--------------------------------------|
F#|--------------------------------------|
D |---9T-p5p0---------9T-p0-12T-p0-9T -p0|
A |----------9T-p5p0h4-------------------|
D |-5t-----------------------------------|

E |--------------------------------------|
A |--------------------------------------|
F#|--------------------------------------|
D |---9T-p5p0---------9T-p0-12T-p0-9T -p0|
A |----------9T-p5p0h4-------------------|
D |-5t-----------------------------------|

E |--------------------------------------|
A |--------------------------------------|
F#|--------------------------------------|
D |---9T-p5p0---------9T-p0-12T-p0-9T -p0|
A |----------9T-p5p0h4-------------------|
D |-5t-----------------------------------|

E |--------------------------------------|
A |--------------------------------------|
F#|--------------------------------------|
D |---9T-p5p0---------9T-p0-12T-p0-9T -p0|
A |----------9T-p5p0h4-------------------|
D |-5t-----------------------------------|

(3:01)
E |------------------------------------------|
A |-5t--------------------------------12T-p7-|
F#|-5t-12T-p5p0--------10T-p5p0-12T-p5-------|
D |------------12T-p7p0----------------------|
A |------------------------------------------|
D |-5t---------------------------------------|

E |------------------------------------------|
A |-5t--------------------------------12T-p7-|
F#|-5t-12T-p5p0--------10T-p5p0-12T-p5-------|
D |------------12T-p7p0----------------------|
A |------------------------------------------|
D |-5t---------------------------------------|

E |------------------------------------------|
A |-5t--------------------------------12T-p7-|
F#|-5t-12T-p5p0--------10T-p5p0-12T-p5-------|
D |------------12T-p7p0----------------------|
A |------------------------------------------|
D |-5t---------------------------------------|

E |------------------------------------------|
A |-5t--------------------------------12T-p7-|
F#|-5t-12T-p5p0--------10T-p5p0-12T-p5-------|
D |------------12T-p7p0----------------------|
A |------------------------------------------|
D |-5t---------------------------------------|

E |------------------------------------------|
A |-5t--------------------------------12T-p7-|
F#|-5t-12T-p5p0--------10T-p5p0-12T-p5-------|
D |------------12T-p7p0----------------------|
A |------------------------------------------|
D |-5t---------------------------------------|

E |--------------------------|
A |-7t----------------12T-p7-|
F#|-7t-12T-p7p0-10T-p0-------|
D |--------------------------|
A |--------------------------|
D |-7t-----------------------|

E |------------------------------------------|
A |-5t--------------------------------12T-p7-|
F#|-5t-12T-p5p0--------10T-p5p0-12T-p5-------|
D |------------12T-p7p0----------------------|
A |------------------------------------------|
D |-5t---------------------------------------|

E |--------------------------|
A |-7t----------------12T-p7-|
F#|-7t-12T-p7p0-10T-p0-------|
D |--------------------------|
A |--------------------------|
D |-7t-----------------------|

E |------------------------------------------|
A |-5t--------------------------------12T-p7-|
F#|-5t-12T-p5p0--------10T-p5p0-12T-p5-------|
D |------------12T-p7p0----------------------|
A |------------------------------------------|
D |-5t---------------------------------------|

E |--------------------------|
A |-7t----------------12T-p7-|
F#|-7t-12T-p7p0-10T-p0-------|
D |--------------------------|
A |--------------------------|
D |-7t-----------------------|

E |------------------------------------------|
A |-5t--------------------------------12T-p7-|
F#|-5t-12T-p5p0--------10T-p5p0-12T-p5-------|
D |------------12T-p7p0----------------------|
A |------------------------------------------|
D |-5t---------------------------------------|

E |--------------------------|
A |-7t----------------12T-p7-|
F#|-7t-12T-p7p0-10T-p0-------|
D |--------------------------|
A |--------------------------|
D |-7t-----------------------|

(3:18)
E |-0----|
A |-0----|
F#|-0----|
D |-0----|
A |-0----|
D |-0----|

------------------------------------------------

| h        hammer-on
| p        pull-off
| /        slide up
| \        slide down
| x        dead note
| t        left hand tap
| T        right hand tap
| N.H.     natural harmonic
| .        palm mute
Добавлено: 04.10.2015
Вам также может быть интересно:
Другие материалы по этой песне:
  • Аккорды и текст

Страница создана 04.10.2015
http://primanota.ru/zoo-strategies/untitled-demo-chords.htm
Привет, Гость.
Предлагаем пройти революционный курс по гитаре.
Подарок от PrimaNota.Ru, забирай!