PrimaNota.ru - самый крупный в мире бесплатный архив песенных текстов, аккордов, табулатур и нот


Zoo Strategies - Unintended Consequences - таба, видео

Регистрация Запомнить меня
Войти через:  Facebook Google Twitter Vk Yandex Mail.ru

Zoo Strategies - Unintended Consequences - таба, видео

Печатать
Просмотров: 120
Zoo Strategies' bandcamp: 
  http://zoostrategies.bandcamp.com/

Unintended Consequences:
  https://www.youtube.com/watch?v=RoM3lCwDyms&list=PLvMqUZsaWabrteNn73Y9LL0r2YIrOnyLU&index=2

Tabbed by: crazyguitarman3

Tuning: D A E A C# E


Part 1:
e |------------------5p0---4p0-----------0-----------------0---|
C#|---3-----3----------------------------0-------------------0-|
A |-----0-----0----------------0-------0------0----------0-----|
E |----------------------------------0-----------------4-------|
A |-5-----5--------4---------------2--------4--------7---------|
D |----------------------4-------------------------4-----------|

e |------------------5p0---4p0-----------0-----------------0---|
C#|---3-----3----------------------------0-------------------0-|
A |-----0-----0----------------0-------0------0----------0-----|
E |----------------------------------0-----------------4-------|
A |-5-----5--------4---------------2--------4--------7---------|
D |----------------------4-------------------------4-----------|

Part 2:
e |---------9------------------------12T-p0-----------------------------------------|
C#|-------5-----------0---------------------12T-p0---------0--------------3h5p3-----|
A |-----7-----------0------12T p7 h9---------------------5--/-------------------4p0-|
E |---5-----------7------------------------------------0------------4/5p0-----------|
A |-5-----------7-------9t---------------------------5------/-----------------------|
D |-------------------------------------------------------------0h2-----------------|

e |---------9------------------------12T-p0-----------------------------------------|
C#|-------5-----------0---------------------12T-p0---------0/-------------3h5p3-----|
A |-----7-----------0------12T p7 h9---------------------5--/-------------------4p0-|
E |---5-----------7------------------------------------0----/-------4/5p0-----------|
A |-5-----------7-------9t---------------------------5------/-----------------------|
D |-------------------------------------------------------------0h2-----------------|

Repeat part 1:
e |------------------5p0---4p0-----------0-----------------0---|
C#|---3-----3----------------------------0-------------------0-|
A |-----0-----0----------------0-------0------0----------0-----|
E |----------------------------------0-----------------4-------|
A |-5-----5--------4---------------2--------4--------7---------|
D |----------------------4-------------------------4-----------|

e |------------------5p0---4p0-----------0-----------------0---|
C#|---3-----3----------------------------0-------------------0-|
A |-----0-----0----------------0-------0------0----------0-----|
E |----------------------------------0-----------------4-------|
A |-5-----5--------4---------------2--------4--------7---------|
D |----------------------4-------------------------4-----------|

Repeat part 2:
e |---------9------------------------12T-p0-----------------------------------------|
C#|-------5-----------0---------------------12T-p0---------0/-------------3h5p3-----|
A |-----7-----------0------12T p7 h9---------------------5--/-------------------4p0-|
E |---5-----------7------------------------------------0----/-------4/5p0-----------|
A |-5-----------7-------9t---------------------------5------/-----------------------|
D |-------------------------------------------------------------0h2-----------------|

e |---------9------------------------12T-p0-----------------------------------------|
C#|-------5-----------0---------------------12T-p0---------0/-------------3h5p3-----|
A |-----7-----------0------12T p7 h9---------------------5--/-------------------4p0-|
E |---5-----------7------------------------------------0----/-------4/5p0-----------|
A |-5-----------7-------9t---------------------------5------/-----------------------|
D |-------------------------------------------------------------0h2-----------------|

Part 3:
e |--------------------------------------------------------|
C#|---3-----3----------8---5p0-----------12N.H.-------7----|
A |-----0-----0--------0-----------------12N.H.---------7\-|
E |------------------0---------9p0---9---12N.H.---7/9------|
A |-5-----5--------9-----7---------------12N.H.------------|
D |----------------------------------9---12N.H.------------|

Part 4:
e |-----------------------------------------9p0-------------------|
C#|-------3h5p3---------------------------8---------------0h1p0---|
A |-----2-------0---------4h5p4p0-------7-------7p0-------------0-|
E |---4-----------0-----0-------------0-----------------0---------|
A |-0-----------------5-------------9-----------------2-----------|
D |---------------------------------------------------------------|

e |-----------------------------------------9p0-------------------|
C#|-------3h5p3---------------------------8---------------0h1p0---|
A |-----2-------0---------4h5p4p0-------7-------7p0-------------0-|
E |---4-----------0-----0-------------0-----------------0---------|
A |-0-----------------5-------------9-----------------2-----------|
D |---------------------------------------------------------------|

Part 5:
e |----------------------------------------------9---9h10h9-----------------------|
C#|----------10/12p0----------------------------------------0---------------------|
A |-----12-------------12/14\12--------4-------0--------------0---4h5p4-----------|
E |---9----------------------------5h7---5------------------------------5p0-----5-|
A |-0------0-----------12/14\12----0----------------------------------------5h7---|
D |------------------0-------------0---------9-----9------------------------------|

e |----------------------------------------------9---9h10h9-----------------------|
C#|----------10/12p0----------------------------------------0---------------------|
A |-----12-------------12/14\12--------4-------0--------------0---4h5p4-----------|
E |---9----------------------------5h7---5------------------------------5p0-----5-|
A |-0------0-----------12/14\12----0----------------------------------------5h7---|
D |------------------0-------------0---------9-----9------------------------------|

Repeat part 4:
e |-----------------------------------------9p0-------------------|
C#|-------3h5p3---------------------------8---------------0h1p0---|
A |-----2-------0---------4h5p4p0-------7-------7p0-------------0-|
E |---4-----------0-----0-------------0-----------------0---------|
A |-0-----------------5-------------9-----------------2-----------|
D |---------------------------------------------------------------|

e |-----------------------------------------9p0-------------------|
C#|-------3h5p3---------------------------8---------------0h1p0---|
A |-----2-------0---------4h5p4p0-------7-------7p0-------------0-|
E |---4-----------0-----0-------------0-----------------0---------|
A |-0-----------------5-------------9-----------------2-----------|
D |---------------------------------------------------------------|

Repeat part 5:
e |----------------------------------------------9---9h10h9-----------------------|
C#|----------10/12p0----------------------------------------0---------------------|
A |-----12-------------12/14\12--------4-------0--------------0---4h5p4-----------|
E |---9----------------------------5h7---5------------------------------5p0-----5-|
A |-0------0-----------12/14\12----0----------------------------------------5h7---|
D |------------------0-------------0---------9-----9------------------------------|

e |----------------------------------------------9---9h10h9-----------------------------.|
C#|----------10/12p0----------------------------------------0---------------------5N.H--.|
A |-----12-------------12/14\12--------4-------0--------------0---4h5p4-----------5N.H--.|
E |---9----------------------------5h7---5------------------------------5p0-----5-5N.H--.|
A |-0------0-----------12/14\12----0----------------------------------------5h7---5N.H--.|
D |------------------0-------------0---------9-----9------------------------------5N.H--.|


Part 6:
e |-----0------0-----------0-----0-----------0-----0-----------0-------0-|
C#|-----0------0-----------0-----0-----------0-----0-----------0---5-----|
A |-----0------0-----------0-----0-----------4-----4-----------0---------|
E |---5------5-----5-----7-----7-----7-----5-----5-----5-----7---7---7---|
A |-2------2-----2-----4-----4-----4-----5-----5-----5-----4-------------|
D |----------------------------------------------------------------------|

e |-----0------0-----------0-----0-----------0-----0-----------0-------0-|
C#|-----0------0-----------0-----0-----------0-----0-----------0---5-----|
A |-----0------0-----------0-----0-----------4-----4-----------0---------|
E |---5------5-----5-----7-----7-----7-----5-----5-----5-----7---7---7---|
A |-2------2-----2-----4-----4-----4-----5-----5-----5-----4-------------|
D |----------------------------------------------------------------------|

Part 7:
e |------------------------------------------------------------------------------------|
C#|------------------------------------------------------------------------------------|
A |-12-12-12-12-----12-121212-12-12-12-12-12-12-12-12-12-----12-121212-12-12-12-12-12--|
E |-10-10-10-10-----10-101010-10-10-10-10-10-10-10-10-10-----10-101010-10-10-10-10-10--|
A |-9--9--9--9--0-0-9--9-9-9--9--9--9--9--9--9--9--9--9--0-0-9--9-9-9--9--9--9--9--9---|
D |-9--9--9--9--0-0-9--9-9-9--9--9--9--9--9--9--9--9--9--0-0-9--9-9-9--9--9--9--9--9---|

e |-----------------------------------------------------------------------------------|
C#|------------------------------------------12-12-12-12-----12-121212-12-12-12-12-12-|
A |-12-12-12-12-----12-121212-12-12-12-12-12-12-12-12-12-----12-121212-12-12-12-12-12-|
E |-10-10-10-10-----10-101010-10-10-10-10-10------------------------------------------|
A |-11-11-11-11-0-0-11-111111-11-11-11-11-11-------------0-0--------------------------|
D |-11-11-11-11-0-0-11-111111-11-11-11-11-11-12-12-12-12-0-0-12-121212-12-12-12-12-12-|

e |-----------------------------------------------------------------------------------|
C#|-----------------------------------------------------------------------------------|
A |-12-12-12-12-----12-121212-12-12-12-12-12-12-12-12-12-----12-121212-12-12-12-12-12-|
E |-12-12-12-12-----12-121212-12-12-12-12-12-12-12-12-12-----12-121212-12-12-12-12-12-|
A |-14-14-14-14-0-0-14-141414-14-14-14-14-14-14-14-14-14-0-0-14-141414-14-14-14-14-14-|
D |-14-14-14-14-0-0-14-141414-14-14-14-14-14-14-14-14-14-0-0-14-141414-14-14-14-14-14-|

e |-----------------------------------------------------------------------------------|
C#|-----------------------------------------------------------------------------------|
A |-14-14-14-14-----14-141414-14-14-14-14-14-12-12-12-12-----12-121212-12-12-12-12-12-|
E |-14-14-14-14-----14-141414-14-14-14-14-14-12-12-12-12-----12-121212-12-12-12-12-12-|
A |-16-16-16-16-0-0-16-161616-16-16-16-16-16-14-14-14-14-0-0-14-141414-14-14-14-14-14-|
D |-16-16-16-16-0-0-16-161616-16-16-16-16-16-14-14-14-14-0-0-14-141414-14-14-14-14-14-|

e |------------------------------------------------------------------------------------|
C#|------------------------------------------------------------------------------------|
A |-12-12-12-12-----12-121212-12-12-12-12-12-12-12-12-12-----12-121212-12-12-12-12-12--|
E |-10-10-10-10-----10-101010-10-10-10-10-10-10-10-10-10-----10-101010-10-10-10-10-10--|
A |-9--9--9--9--0-0-9--9-9-9--9--9--9--9--9--9--9--9--9--0-0-9--9-9-9--9--9--9--9--9---|
D |-9--9--9--9--0-0-9--9-9-9--9--9--9--9--9--9--9--9--9--0-0-9--9-9-9--9--9--9--9--9---|

e |-----------------------------------------------------------------------------------|
C#|------------------------------------------12-12-12-12-----12-121212-12-12-12-12-12-|
A |-12-12-12-12-----12-121212-12-12-12-12-12-12-12-12-12-----12-121212-12-12-12-12-12-|
E |-10-10-10-10-----10-101010-10-10-10-10-10------------------------------------------|
A |-11-11-11-11-0-0-11-111111-11-11-11-11-11-------------0-0--------------------------|
D |-11-11-11-11-0-0-11-111111-11-11-11-11-11-12-12-12-12-0-0-12-121212-12-12-12-12-12-|

e |-----------------------------------------------------------------------------------|
C#|-----------------------------------------------------------------------------------|
A |-12-12-12-12-----12-121212-12-12-12-12-12-12-12-12-12-----12-121212-12-12-12-12-12-|
E |-12-12-12-12-----12-121212-12-12-12-12-12-12-12-12-12-----12-121212-12-12-12-12-12-|
A |-14-14-14-14-0-0-14-141414-14-14-14-14-14-14-14-14-14-0-0-14-141414-14-14-14-14-14-|
D |-14-14-14-14-0-0-14-141414-14-14-14-14-14-14-14-14-14-0-0-14-141414-14-14-14-14-14-|

e |------------------------------------------------------------------------------------------------|
C#|------------------------------------------------------------------------------------------------|
A |-14-14-14-14-----14-141414-14-14-14-14-14-12-12-12-12-----12-121212-12-12N.H.12N.H.12N.H.12N.H.-|
E |-14-14-14-14-----14-141414-14-14-14-14-14-12-12-12-12-----12-121212-12-12N.H.12N.H.12N.H.12N.H.-|
A |-16-16-16-16-0-0-16-161616-16-16-16-16-16-14-14-14-14-0-0-14-141414-14-12N.H.12N.H.12N.H.12N.H.-|
D |-16-16-16-16-0-0-16-161616-16-16-16-16-16-14-14-14-14-0-0-14-141414-14-12N.H.12N.H.12N.H.12N.H.-|

Part 8:
e |-------------------------------------------------------------------------------------|
C#|-3---3---3----------------12T-p8--------3---3---3------------------------------------|
A |-4---4---4---------12T-p5--------12T-p5-4---4---4------------------------------------|
E |-5---5---5------------------------------5---5---5-------------5t-h7-9T-p5h7-12T-p5h7-|
A |-5---5---5---0h5h7----------------------5---5---5---0h5h7-12T------------------------|
D |-------------------------------------------------------------------------------------|

e |-------------------------------------------------------------------------------------|
C#|-3---3---3----------------12T-p8--------3---3---3------------------------------------|
A |-4---4---4---------12T-p5--------12T-p5-4---4---4------------------------------------|
E |-5---5---5------------------------------5---5---5-------------5t-h7-9T-p5h7-12T-p5h7-|
A |-5---5---5---0h5h7----------------------5---5---5---0h5h7-12T------------------------|
D |-------------------------------------------------------------------------------------|

e |-------------12T-p7h9----------------------------------------12T-p7h9----------------------------|
C#|-7---7---7------------12T-p7h8-------------------7---7---7------------12T-p7h8-------------------|
A |-7---7---7---------------------12T-p7h9----------7---7---7---------------------12T-p7h9----------|
E |-9---9---9------------------------------12T-p7p0-9---9---9------------------------------12T-p7p0-|
A |-9---9---9---------------------------------------9---9---9---------------------------------------|
D |-------------------------------------------------------------------------------------------------|

e |-------------------------------------------------------------------------------------|
C#|-3---3---3----------------12T-p8--------3---3---3------------------------------------|
A |-4---4---4---------12T-p5--------12T-p5-4---4---4------------------------------------|
E |-5---5---5------------------------------5---5---5-------------5t-h7-9T-p5h7-12T-p5h7-|
A |-5---5---5---0h5h7----------------------5---5---5---0h5h7-12T------------------------|
D |-------------------------------------------------------------------------------------|

e |-------------------------------------------------------------------------------------|
C#|-3---3---3----------------12T-p8--------3---3---3------------------------------------|
A |-4---4---4---------12T-p5--------12T-p5-4---4---4------------------------------------|
E |-5---5---5------------------------------5---5---5-------------5t-h7-9T-p5h7-12T-p5h7-|
A |-5---5---5---0h5h7----------------------5---5---5---0h5h7-12T------------------------|
D |-------------------------------------------------------------------------------------|

e |-------------12T-p7h9----------------------------------------12T-p7h9----------------------------|
C#|-7---7---7------------12T-p7h8-------------------7---7---7------------12T-p7h8-------------------|
A |-7---7---7---------------------12T-p7h9----------7---7---7---------------------12T-p7h9----------|
E |-9---9---9------------------------------12T-p7p0-9---9---9------------------------------12T-p7p0-|
A |-9---9---9---------------------------------------9---9---9---------------------------------------|
D |-------------------------------------------------------------------------------------------------|

e |-------------------------------------------------------------------------|
C#|-3---3---3---------3---3---3---------3---3---3---------3---3---3---------|
A |-4---4---4---------4---4---4---------4---4---4---------4---4---4---------|
E |-5---5---5---------5---5---5---------5---5---5---------5---5---5---------|
A |-5---5---5---------5---5---5---------5---5---5---------5---5---5---------|
D |-------------------------------------------------------------------------|

Outro:
e |------------------5p0---4p0-----------0-----------------0---|
C#|---3-----3----------------------------0-------------------0-|
A |-----0-----0----------------0-------0------0----------0-----|
E |----------------------------------0-----------------4-------|
A |-5-----5--------4---------------2--------4--------7---------|
D |----------------------4-------------------------4-----------|

e |------------------5p0---4p0-----------0-----------------0---|
C#|---3-----3----------------------------0-------------------0-|
A |-----0-----0----------------0-------0------0----------0-----|
E |----------------------------------0-----------------4-------|
A |-5-----5--------4---------------2--------4--------7---------|
D |----------------------4-------------------------4-----------|

e |------------------5p0---4p0-----------0-----------------0---|
C#|---3-----3----------------------------0-------------------0-|
A |-----0-----0----------------0-------0------0----------0-----|
E |----------------------------------0-----------------4-------|
A |-5-----5--------4---------------2--------4--------7---------|
D |----------------------4-------------------------4-----------|

e |------------------5p0---4p0-----------0-----------------0-----------------12N.H.-|
C#|---3-----3----------------------------0-------------------0---------0-----12N.H.-|
A |-----0-----0----------------0-------0------0----------0-----0---0---------12N.H.-|
E |----------------------------------0-----------------4-------------4-------12N.H.-|
A |-5-----5--------4---------------2--------4--------7-----------7-----------12N.H.-|
D |----------------------4-------------------------4---------------------0---12N.H.-|

--------------------------------------------------------

| h     hammer-on
| p     pull-off
| /     slide up
| \     slide down
| X     dead note
| t     left hand tap
| T     right hand tap
| N.H.  natural harmonic
Добавлено: 04.10.2015
Вам также может быть интересно:
Другие материалы по этой песне:
  • Аккорды и текст

Страница создана 04.10.2015
http://primanota.ru/zoo-strategies/unintended-consequences-chords.htm
Привет, Гость.
Предлагаем пройти революционный курс по гитаре.
Подарок от PrimaNota.Ru, забирай!