PrimaNota.ru - самый крупный в мире бесплатный архив песенных текстов, аккордов, табулатур и нот


Zoo Kid - Out Getting Ribs - таба, видео

Регистрация Запомнить меня
Войти через:  Facebook Google Twitter Vk Yandex Mail.ru

Zoo Kid - Out Getting Ribs - таба, видео

Печатать
Просмотров: 309
----------------------------------------------------------------------------------
                               OUT GETTING RIBS - Zoo Kid
----------------------------------------------------------------------------------

Tabbed by: Richard, props to Benjamindaydreams (http://www.youtube.com/watch?v=YgMA1wDWKHQ)
Email: rikkycohn@gmail.com

Tuning: D A D F# B E (open D variant)

Structure:

Main riff (1)   x2
Main riff (2)   x2

Verse riff      x4

Main riff (1)   x2
Main riff (2)   x2
[and underneath]
Background riff x4

Chorus          x4

and it repeats in those pieces

Tab:

Main riff (1) -

e|---------------------------------------|
B|-------7-------------------------------|
G|-----7---7-7h8h7-5-------0-------0-----|
D|-------------------7---0-------0---0---|
A|---------------------------------------|
E|---0-----------------5-----5-4---------|

Main riff (2) -

e|-----------------------------------------|
B|-------7---------------------------------|
G|-----7---7-7h8h7-7h8h7-----0-------0-----|
D|-------------------------0-------0---0---|
A|------------------------------------(0)--|
E|---0-------------------5-----5-4---------|

Verse riff -

e|-------------------------------------|
B|-------------------------------------|
G|-------7-5-------------0-------0-----|
D|-----------7-4-------0-------0---0---|
A|---------------7-5-------------------|
E|---0---------------5-----5-4---------|

Verse background riff -

e|-------7--|
B|--7h10----|
G|----------|
D|----------|
A|----------|
E|----------|

On the record, the riff just plays from a second guitar.
'Benjamindaydreams' on YouTube incorporates it in a way that's more appropriate for a 
single guitar -

e|------------7------7-------------------|
B|-------7h10---7h10---------------------|
G|-------------------------0-------0-----|
D|-----------------------0-------0---0---|
A|---------------------------------------|
E|---0-----------------5-----5-4---------|

Chorus -

e|-----------------------------------------------------------------|
B|-----------------------------------------------------------------|
G|---------------0-----0-----0-----0-----0-------0-------0---0-----|
D|-----------------------------------------------------------------|
A|-----------------------------------------------------------------|
E|---9-9-2-2-5-5---5-5---5-5---5-5---7-7---7/8-8---8/9-9---2---0---|

This section was a pain in the ass to tab and probably isn't accurate.
You can get a good feel for it by just playing the E-string notes and chucking in F#s 
(open G-string) where they fit.

That's pretty much it, the song is great and really fun to play.
The beats aren't 100% tight on the record and the tuning allows for brushing, so feel 
free to play loosely.
Добавлено: 12.06.2012
Другие материалы по этой песне:
  • Аккорды и текст

Страница создана 12.06.2012
http://primanota.ru/zoo-kid/out-getting-ribs-chords.htm
Привет, Гость.
Предлагаем пройти революционный курс по гитаре.
Подарок от PrimaNota.Ru, забирай!