PrimaNota.ru - самый крупный в мире бесплатный архив песенных текстов, аккордов, табулатур и нот


Zonaria - The Last Endeavour - таба, видео

Регистрация Запомнить меня
Войти через:  Facebook Google Twitter Vk Yandex Mail.ru

Zonaria - The Last Endeavour - таба, видео

Печатать
Просмотров: 63
-----------------------------------------------------------------------------
                             THE LAST ENDEAVOUR - Zonaria
-----------------------------------------------------------------------------
Tabbed by: Samee
Email: xcrunner64@yahoo.com

Tuning: B Standard (for 6-string guitars): B E A D F# B

 |--------------------------------------------------------------------|
 |--------------------------------------------------------------------|
 |--------------------------------------------------------------------|
 |--------------------------------------------------------------------|
 |-7x-----------------------------------------------------------------|
 |-5x--------444444x---------8888750---(0)---(0)---(0)---(0)----8-8-7-|

 |-------------------------------------------------------------------------|
 |-------------------------------------------------------------------------|
 |-------------------------------------------------------------------------|
 |-------------------------------------------------------------------------|
 |-7----7-8-7--------7----7-8-7--------7----7-8-7--------7----7-8-7--------|
 |---00-------444444---00-------888875---00-------444444---00-------888875-|

 |-------------------------------------------------------------------------|
 |-------------------------------------------------------------------------|
 |-------------------------------------------------------------------------|
 |-------------------------------------------------------------------------|
 |-7----7-8-7--------7----7-8-7--------7----7-8-7--------7----7-8-7--------|
 |---00-------444444---00-------888875---00-------444444---00-------888875-|

 |-------------------------------------------------------------------------|
 |-------------------------------------------------------------------------|
 |-------------------------------------------------------------------------|
 |-------------------------------------------------------------------------|
 |-7----7-8-7--------7----7-8-7--------7----7-8-7--------7----7-8-7--------|
 |---00-------444444---00-------888875---00-------444444---00-------888875-|

 |-----------------------------------------------------------------|
 |-----------------------------------------------------------------|
 |-------------------------------------------------------------7~~-|
 |-----------------------------------------------------------------|
 |-6---(6)---(6)---6---(6)---(6)---6---(6)---(6)---9-9-9-9-9-------|
 |-6---(6)---(6)---6---(6)---(6)---6---(6)---(6)---7-7-7-7-7-------|
                                                               +

 |-----------------------------------------------------------------|
 |-----------------------------------------------------------------|
 |-------------------------------------------------------------7~~-|
 |-----------------------------------------------------------------|
 |-6---(6)---(6)---6---(6)---(6)---6---(6)---(6)---9-9-9-9-9-------|
 |-6---(6)---(6)---6---(6)---(6)---6---(6)---(6)---7-7-7-7-7-------|
                                                               +

 |-------------------------------------------------------------------------|
 |-------------------------------------------------------------------------|
 |-------------------------------------------------------------------------|
 |-------------------------------------------------------------------------|
 |-7----7-8-7--------7----7-8-7--------7----7-8-7--------7----7-8-7--------|
 |---00-------444444---00-------888875---00-------444444---00-------888875-|

 |-------------------------------------------------------------------------|
 |-------------------------------------------------------------------------|
 |-------------------------------------------------------------------------|
 |-------------------------------------------------------------------------|
 |-7----7-8-7--------7----7-8-7--------7----7-8-7--------7----7-8-7--------|
 |---00-------444444---00-------888875---00-------444444---00-------888875-|

 |----------------------------------------------------------------------|
 |----------------------------------------------------------------------|
 |----------------------------------------------------------------------|
 |-----10-9-x-------------------10-9-x-------------------10-9-x---------|
 |------8-7-x-3-5-2---222222-----8-7-x-3-5-2---222222-----8-7-x-3-5-2---|
 |-0------------------------0------------------------0------------------|

 |------------------------------------------------------------------------|
 |------------------------------------------------------------------------|
 |------------------------------------------------------------------------|
 |-----------10-9-x-----------------------------------5---4---------------|
 |-222222-----8-7-x-3-5-2---2222222-------------------3---2-----------5---|
 |-------0------------------------------------1---0---------0-0-0-0-------|

 |-------------------------------------------------------------------------|
 |-------------------------------------------------------------------------|
 |-------------------------------------------------------------------------|
 |-------------5---4-------------------------------------------7---9-7-9~~-|
 |-7-5-7-------3---2-----------5---7-5-7-------3---6-7---------------------|
 |---------0---------0-0-0-0---------------0---------------0---------------|

 |----------------------------------------------------------------------|
 |----------------------------------------------------------------------|
 |----------------------------------------------------------------------|
 |---------------------7---9-7-9~~--------------------------------------|
 |-----3---6-7----------------------------------------------------------|
 |-0---------------0---------------12000120001200011-12-120001200012000-|

 |------------------------------------------------------------------------|
 |------------------------------------------------------------------------|
 |------------------------------------------------------------------------|
 |------------------------------------------------------------------------|
 |------------------------------------------------------------------------|
 |-1717171712000120001200011-12-1200012000120001616161612000120001200011--|

 |------------------------------------------------------------------------|
 |------------------------------------------------------------------------|
 |------------------------------------------------------------------------|
 |------------------------------------------------------------------------|
 |------------------------------------------------------------------------|
 |-12-1200012000120001717171712000120001200011-12-12000120001200016161616-|

 |------------------------------------------------------------|
 |------------------------------------------------------------|
 |------------------------------------------------------------|
 |-----5---4-----------7---9-----------5---4-----------7---9--|
 |-----3---2-----------5---7-----------3---2-----------5---7--|
 |-0-0-------0-0-0-0-0-------0-0-0-0-0-------0-0-0-0-0--------|

 |---------------------------------------------------------------------|
 |---------------------------------------------------------------------|
 |---------------------------------------------------------------------|
 |---------5---4-----------7---9-----------5---4-----------7---9-------|
 |---------3---2-----------5---7-----------3---2-----------5---7-------|
 |-0-0-0-0-------0-0-0-0-0-------0-0-0-0-0-------0-0-0-0-0-------0-0-0-|


Play either of the two parts

Part 1
 |--------------------------------------------------------------------------|
 |--------------------------------------------------------------------------|
 |---------------------------Pause between----------------------------------|
 |---------------------------1:45 and 1:55----------------------------------|
 |--------------------------------------------------------------------------|
 |--------------------------------------------------------------------------|

 |-------------------------------------------------------|
 |-------------------------------------------------------|
 |-------------------------------------------------------|X2
 |-------------------------------------------------------|
 |---------------------------------------7------10---9---|
 |-0000----00000------0000----00000------5-------8---7---|
   ...     ...        ...     ...  

 |-----------------------------------------------|
 |-----------------------------------------------|
 |-----------------------------------------------|X4
 |-----------------------------------------------|
 |---------------------------------7------10---9-|
 |-000000000000000000000000000000005-------8---7-|

Part 2
 |------------------------------------------------------------------|
 |------------------------------------------------------------------|
 |------------------------------------------------------------------|
 |-----------------9~~~~~------5---7~~~----10---9---7---9---6~~~----|
 |---------7--------------------------------------------------------|
 |-7----------------------------------------------------------------|

 |---------------------------------|
 |-----------------------------7---|
 |---------------------------------|X4
 |-------------5---7-------5-------|
 |-7~~~~---------------------------|
 |---------------------------------|
                               +


 |----------------------------------------------------------------------|
 |----------------------------------------------------------------------|
 |----------------------------------------------------------------------|
 |-----10-9-x-------------------10-9-x-------------------10-9-x---------|
 |------8-7-x-3-5-2---222222-----8-7-x-3-5-2---222222-----8-7-x-3-5-2---|
 |-0------------------------0------------------------0------------------|

 |------------------------------------------------------------------------|
 |------------------------------------------------------------------------|
 |------------------------------------------------------------------------|
 |-----------10-9-x-----------------------------------5---4---------------|
 |-222222-----8-7-x-3-5-2---2222222-------------------3---2-----------5---|
 |-------0------------------------------------1---0---------0-0-0-0-------|

 |-------------------------------------------------------------------------|
 |-------------------------------------------------------------------------|
 |-------------------------------------------------------------------------|
 |-------------5---4-------------------------------------------7---9-7-9~~-|
 |-7-5-7-------3---2-----------5---7-5-7-------3---6-7---------------------|
 |---------0---------0-0-0-0---------------0---------------0---------------|

 |-------------------------------------------------------------------|
 |-------------------------------------------------------------------|
 |-------------------------------------------------------------------|
 |---------------------7---9-7-9~~-----------------------------------|
 |-----3---6-7---------------------7x--------------------------------|
 |-0---------------0---------------5x--------444444x---------8888750-|

 |-------------------------------------------------------------------------|
 |-------------------------------------------------------------------------|
 |-------------------------------------------------------------------------|
 |-------------------------------------------------------------------------|
 |-7----7-8-7--------7----7-8-7--------7----7-8-7--------7----7-8-7--------|
 |---00-------444444---00-------888875---00-------444444---00-------888875-|

 |-------------------------------------------------------------------------|
 |-------------------------------------------------------------------------|
 |-------------------------------------------------------------------------|
 |-------------------------------------------------------------------------|
 |-7----7-8-7--------7----7-8-7--------------------------------------------|
 |---00-------444444---00-------88887512000120001200011-12-120001200012000-|

 |------------------------------------------------------------------------|
 |------------------------------------------------------------------------|
 |------------------------------------------------------------------------|
 |------------------------------------------------------------------------|
 |------------------------------------------------------------------------|
 |-1717171712000120001200011-12-1200012000120001616161612000120001200011--|

 |------------------------------------------------------------------------|
 |------------------------------------------------------------------------|
 |------------------------------------------------------------------------|
 |------------------------------------------------------------------------|
 |------------------------------------------------------------------------|
 |-12-1200012000120001717171712000120001200011-12-12000120001200016161616-|

 |-------------------------------------------------------------------------|
 |-------------------------------------------------------------------------|
 |-------------------------------------------------------------------------|
 |-------------------------------------------------------------------------|
 |-----------------2---(2)---(2)---(2)---(2)---(2)---(2)---(2)---(2)---(2)-|
 |-----------------0---(0)---(0)---(0)---(0)---(0)---(0)---(0)---(0)---(0)-|



************************************

| ~   vibrato
| +   pinch harmonic
| x   mute note
| (#) let ring

************************************
Добавлено: 01.10.2013
Другие материалы по этой песне:
  • Аккорды и текст

Страница создана 23.06.2013
http://primanota.ru/zonaria/the-last-endeavour-chords.htm
Привет, Гость.
Предлагаем пройти революционный курс по гитаре.
Подарок от PrimaNota.Ru, забирай!