PrimaNota.ru - самый крупный в мире бесплатный архив песенных текстов, аккордов, табулатур и нот


Zonaria - The Armageddon Anthem - таба, видео

Регистрация Запомнить меня
Войти через:  Facebook Google Twitter Vk Yandex Mail.ru

Zonaria - The Armageddon Anthem - таба, видео

Печатать
Просмотров: 70
-----------------------------------------------------------------------------
                             THE ARMAGEDDON ANTHEM - Zonaria
-----------------------------------------------------------------------------
Tabbed by: Samee
Email: xcrunner64@yahoo.com

Tuning: Drop A (for 6-string guitars): A E A D F# B

 |---------------------------------------------------|
 |---------------------------------------------------|
 |-----------8pb---------7-----------6---------------|
 |---------------------7---6-------6-----333-3-2-2-2-|
 |-----0-7-8---------5-----------5-----5-333-3-2-2-2-|
 |-000-----------000---------000---------333-3-2-2-2-|
PM ...       +   ...         ...         ... . . . .

 |---------------------------------------------------|
 |---------------------------------------------------|
 |-----------8pb---------7-----------6---------------|
 |---------------------7---6-------6-----222-2-------|
 |-----0-7-8---------5-----------5-----5-222-2-2bs---|
 |-000-----------000---------000---------222-2-------|
PM ...       +   ...         ...               +

 |---------------------------------------------------|
 |---------------------------------------------------|
 |-----------8pb---------7-----------6---------------|
 |---------------------7---6-------6-----333-3-2-2-2-|
 |-----0-7-8---------5-----------5-----5-333-3-2-2-2-|
 |-000-----------000---------000---------333-3-2-2-2-|
PM ...       +   ...         ...         ... . . . .

 |---------------------------------------------------|
 |---------------------------------------------------|
 |-----------8pb---------7-----------6---------------|
 |---------------------7---6-------6-----333-3-2-2-2-|
 |-----0-7-8---------5-----------5-----5-333-3-2-2-2-|
 |-000-----------000---------000---------333-3-2-2-2-|
PM ...       +   ...         ...

 |---------------------------------------------------|
 |---------------------------------------------------|
 |-----------8pb---------7-----------6---------------|
 |---------------------7---6-------6-----333-3-2-2-2-|
 |-----0-7-8---------5-----------5-----5-333-3-2-2-2-|
 |-000-----------000---------000---------333-3-2-2-2-|
PM ...       +   ...         ...         ... . . . .

 |---------------------------------------------------|
 |---------------------------------------------------|
 |-----------8pb---------7-----------6---------------|
 |---------------------7---6-------6-----333-3-2-2-2-|
 |-----0-7-8---------5-----------5-----5-333-3-2-2-2-|
 |-000-----------000---------000---------333-3-2-2-2-|
PM ...       +   ...         ...

 |---------------------------------------------------|
 |---------------------------------------------------|
 |-----------8pb---------7-----------6---------------|
 |---------------------7---6-------6-----333-3-2-2-2-|
 |-----0-7-8---------5-----------5-----5-333-3-2-2-2-|
 |-000-----------000---------000---------333-3-2-2-2-|
PM ...       +   ...         ...         ... . . . .

 |---------------------------------------------------|
 |---------------------------------------------------|
 |-----------8pb---------7-----------6---------------|
 |---------------------7---6-------6-----333-3-2-2-2-|
 |-----0-7-8---------5-----------5-----5-333-3-2-2-2-|
 |-000-----------000---------000---------333-3-2-2-2-|
PM ...       +   ...         ...

 |--------------------------------------------------------------------|
 |-------------------7777777777779999999999996666666666665bs----------|
 |--------------------------------------------------------------------|
 |-0-----(0)-----(0)-----(0)-----(0)-----(0)-----(0)-----(0)-----(0)--|
 |-0-----(0)-----(0)-----(0)-----(0)-----(0)-----(0)-----(0)-----(0)--|
 |-0-----(0)-----(0)-----(0)-----(0)-----(0)-----(0)-----(0)-----(0)--|

 |--------------------------------------------------------------------------|
 |--------------------------------------------------------------------------|
 |--------------------------------------------------------------------------|
 |--------------------------------------------------------------------------|
 |----------5------------------------5----------------------5---------------|
 |-0--0--x-----7-5-7-8-7~~--0--0--x-----7-5-6-5----0--0--x-----7-5-7-8-7~~--|

 |------------------------------------------------------------------------|
 |------------------------------------------------------------------------|
 |------------------------------------------------------------------------|
 |------------------------------------------------------------------------|
 |-0--0--x--5-------------0--0--x--5---------------0--0--x--5-------------|
 |-0--0--x-----7-5-6-5----0--0--x-----7-5-7-8-7~~--0--0--x-----7-5-6-5----|

 |-------------------------------------------------|
 |-------------------------------------------------|
 |-------------------------------------------------|
 |-------------------------------------------------|
 |-0--0--x--5---------------0--0--x--5-------------|
 |-0--0--x-----7-5-7-8-7~~--0--0--x-----7-5-6-5----|

 |---------------------------------------------------|
 |---------------------------------------------------|
 |-----------8pb---------7-----------6---------------|
 |---------------------7---6-------6-----333-3-2-2-2-|
 |-----0-7-8---------5-----------5-----5-333-3-2-2-2-|
 |-000-----------000---------000---------333-3-2-2-2-|
PM ...       +   ...         ...         ... . . . .

 |---------------------------------------------------|
 |---------------------------------------------------|
 |-----------8pb---------7-----------6---------------|
 |---------------------7---6-------6-----333-3-2-2-2-|
 |-----0-7-8---------5-----------5-----5-333-3-2-2-2-|
 |-000-----------000---------000---------333-3-2-2-2-|
PM ...       +   ...         ...

 |---------------------------------------------------|
 |---------------------------------------------------|
 |-----------8pb---------7-----------6---------------|
 |---------------------7---6-------6-----333-3-2-2-2-|
 |-----0-7-8---------5-----------5-----5-333-3-2-2-2-|
 |-000-----------000---------000---------333-3-2-2-2-|
PM ...       +   ...         ...         ... . . . .

 |---------------------------------------------------------|
 |---------------------------------------------------------|
 |-----------8pb---------7-----------6---------------------|
 |---------------------7---6-------6-----333-3-2-2-2-0-----|
 |-----0-7-8---------5-----------5-----5-333-3-2-2-2-0-----|
 |-000-----------000---------000---------333-3-2-2-2-0-----|
PM ...       +   ...         ...

 |--------------------------------------------------------------------------|
 |--------------------------------------------------------------------------|
 |--------------------------------------------------------------------------|
 |--------------------------------------------------------------------------|
 |----------5------------------------5----------------------5---------------|
 |-0--0--x-----7-5-7-8-7~~--0--0--x-----7-5-6-5----0--0--x-----7-5-7-8-7~~--|

 |------------------------------------------------------------------------|
 |------------------------------------------------------------------------|
 |------------------------------------------------------------------------|
 |------------------------------------------------------------------------|
 |-0--0--x--5-------------0--0--x--5---------------0--0--x--5-------------|
 |-0--0--x-----7-5-6-5----0--0--x-----7-5-7-8-7~~--0--0--x-----7-5-6-5----|

 |-------------------------------------------------|
 |-------------------------------------------------|
 |-------------------------------------------------|
 |-------------------------------------------------|
 |-0--0--x--5---------------0--0--x--5-------------|
 |-0--0--x-----7-5-7-8-7~~--0--0--x-----7-5-6-5----|

 |--------------------------------------------------------------------|
 |--------------------------------------------------------------------|
 |--------------------------------------------------------------9-----|
 |-3--------------------0---3~~-2----3--------------------------9-----|
 |-1-----2-5-2------0-----------0----1----2-5-------0---5---8~~-7-----|
 |-------------3-x----0---0-------------------0-3-x---0---0-----------|
PM                    .   .                   .       .   .

 |---------------------------------------------------------------------|
 |---------------------------------------------------------------------|
 |---------------------------------------------------------------------|
 |---------------------------------------------------------------------|
 |---------------------------------------------------------------------|
 |-2-2-2-2-2-2-2-2-2-2-2-2-2-2-2-2-2-2-2-2-4-5-5-5-2-2-2-2-2-2-2-2-2-2-|

 |-----------------------------------------------------------|
 |-----------------------------------------------------------|
 |-----------------------------------------------------------|
 |-----7-----------------------------------------------------|
 |-5---5---2------4--------6\--------------------------------|
 |-5-------2------4--------6\--2-2-2-2-5-4-2-2-2-2-5----7----|

 |---------------------------------------------------------------|
 |---------------------------------------------------------------|
 |---------------------------------------------------------------|
 |-------------------------2------------------------------2------|
 |-------------------------0------------------------------0------|
 |-000--0---0------0---0----------000--0---0------0---0----------|
PM ...  .   .      .   .          ...  .   .      .   .


Play either of the two parts

Part 1
 |-----------------------------------|
 |-----------------------------------|
 |-----------------------------------|X2
 |-----7/9------7/9----------2-------|
 |-----5/7------5/7----------0-------|
 |-0--------0--------0---2-------2~~-|
PM .        .        .   .

Part2
 |-----------------------------------------|
 |-----------------------------------------|
 |-----------------------------------------|X2
 |-----1-3-3-3-2---0-2-3-----5-5-2-2-2-----|
 |-----------------------------------------|
 |-0---------------------0-----------------|
PM .                     .


 |--------------------------------------------------------------------------|
 |--------------------------------------------------------------------------|
 |--------------------------------------------------------------------------|
 |--------------------------------------------------------------------------|
 |----------5------------------------5----------------------5---------------|
 |-0--0--x-----7-5-7-8-7~~--0--0--x-----7-5-6-5----0--0--x-----7-5-7-8-7~~--|

 |------------------------------------------------------------------------|
 |------------------------------------------------------------------------|
 |------------------------------------------------------------------------|
 |------------------------------------------------------------------------|
 |----------5----------------------5------------------------5-------------|
 |-0--0--x-----7-5-6-5----0--0--x-----7-5-7-8-7~~--0--0--x-----7-5-6-5----|

 |-------------------------------------------------|
 |-------------------------------------------------|
 |-------------------------------------------------|
 |-------------------------------------------------|
 |----------5------------------------5-------------|
 |-0--0--x-----7-5-7-8-7~~--0--0--x-----7-5-6-5----|

 |---------------------------------------------------------------|
 |---------------------------------------------------------------|
 |---------------------------------------------------------------|
 |-------------------------2------------------------------2------|
 |-------------------------0------------------------------0------|
 |-000--0---0------0---0----------000--0---0------0---0----------|
PM ...  .   .      .   .          ...  .   .      .   .


Play either of the two parts

Part 1
 |-----------------------------------|
 |-----------------------------------|
 |-----------------------------------|X2
 |-----7/9------7/9----------2-------|
 |-----5/7------5/7----------0-------|
 |-0--------0--------0---2-------2~~-|
PM .        .        .   .

Part2
 |-----------------------------------------|
 |-----------------------------------------|
 |-----------------------------------------|X2
 |-----1-3-3-3-2---0-2-3-----5-5-2-2-2-----|
 |-----------------------------------------|
 |-0---------------------0-----------------|
PM .                     .


 |--------------------------------------------------------------------|
 |--------------------------------------------------------------------|
 |--------------------------------------------------------------9-----|
 |-3--------------------0---3~~-2----3--------------------------9-----|
 |-1-----2-5-2------0-----------0----1----2-5-------0---5---8~~-7-----|
 |-------------3-x----0---0-------------------0-3-x---0---0-----------|
PM                    .   .                   .       .   .

 |---------------------------------------------------------------------|
 |---------------------------------------------------------------------|
 |---------------------------------------------------------------------|
 |---------------------------------------------------------------------|
 |---------------------------------------------------------------------|
 |-2-2-2-2-2-2-2-2-2-2-2-2-2-2-2-2-2-2-2-2-4-5-5-5-2-2-2-2-2-2-2-2-2-2-|

 |-----------------------------------------------------------|
 |-----------------------------------------------------------|
 |-----------------------------------------------------------|
 |-----7-----------------------------------------------------|
 |-5---5---2------4--------6\--------------------------------|
 |-5-------2------4--------6\--2-2-2-2-5-4-2-2-2-2-5----7----|

 |---------------------------------------------------|
 |---------------------------------------------------|
 |-----------8pb---------7-----------6---------------|
 |---------------------7---6-------6-----333-3-2-2-2-|
 |-----0-7-8---------5-----------5-----5-333-3-2-2-2-|
 |-000-----------000---------000---------333-3-2-2-2-|
PM ...       +   ...         ...         ... . . . .

 |---------------------------------------------------|
 |---------------------------------------------------|
 |-----------8pb---------7-----------6---------------|
 |---------------------7---6-------6-----333-3-2-2-2-|
 |-----0-7-8---------5-----------5-----5-333-3-2-2-2-|
 |-000-----------000---------000---------333-3-2-2-2-|
PM ...       +   ...         ...

 |---------------------------------------------------|
 |---------------------------------------------------|
 |-----------8pb---------7-----------6---------------|
 |---------------------7---6-------6-----333-3-2-2-2-|
 |-----0-7-8---------5-----------5-----5-333-3-2-2-2-|
 |-000-----------000---------000---------333-3-2-2-2-|
PM ...       +   ...         ...         ... . . . .

 |--------------------------------------------------------|
 |--------------------------------------------------------|
 |-----------8pb---------7-----------6--------------------|
 |---------------------7---6-------6-----333-3-2-2-3----x-|
 |-----0-7-8---------5-----------5-----5-333-3-2-2-3----x-|
 |-000-----------000---------000---------333-3-2-2-3----x-|
PM ...       +   ...         ...         ... . . .


************************************

| /   slide up
| \   slide down
| ~   vibrato
| +   pinch harmonic
| x   mute note
| (#) let ring
| b   Bend
| bs  Bend slowly
| pb  Pre-bend

************************************
Добавлено: 28.07.2013
Другие материалы по этой песне:
  • Аккорды и текст

Страница создана 05.06.2013
http://primanota.ru/zonaria/the-armageddon-anthem-chords.htm
Привет, Гость.
Предлагаем пройти революционный курс по гитаре.
Подарок от PrimaNota.Ru, забирай!