PrimaNota.ru - самый крупный в мире бесплатный архив песенных текстов, аккордов, табулатур и нот


Zonaria - Rendered In Vain - таба, видео

Регистрация Запомнить меня
Войти через:  Facebook Google Twitter Vk Yandex Mail.ru

Zonaria - Rendered In Vain - таба, видео

Печатать
Просмотров: 68
-----------------------------------------------------------------------------
                             RENDERED IN VAIN - Zonaria
-----------------------------------------------------------------------------
Tabbed by: Samee
Email: xcrunner64@yahoo.com

Tuning: B Standard (for 6-string guitars): B E A D F# B

ATTENTION: This tab is for the music video version of the song, not the album version.

 |--------------------------------------------------------------------------|
 |--------------------------------------------------------------------------|
 |---------------------------Pause between----------------------------------|
 |---------------------------0:00 and 0:18----------------------------------|
 |--------------------------------------------------------------------------|
 |--------------------------------------------------------------------------|

 |-------------------------------------------------------------------|
 |-------------------------------------------------------------------|
 |-------------------------------------------------------------------|
 |-----------------5---------------4-------4-5-4---------------------|
 |-2---------------3---------------2---------------2-----------------|
 |-0-----------------------------------------------0-----------------|

 |-----------------------------------------------------------------|
 |-----------------------------------------------------------------|
 |---------2-------5-------2---4---5---0---------------------------|
 |-2-------------------------------------------0---4---------------|
 |-0-------------------------------------------0---2---------------|
 |-----------------------------------------------------------------|

 |-------------------------------------------------------------------|
 |-------------------------------------------------------------------|
 |-------------------------------------------------------------------|
 |-----------------5---------------4-------4-5-4---------------------|
 |-2---------------3---------------2---------------2-----------------|
 |-0-----------------------------------------------0-----------------|

 |-----------------------------------------------------------------|
 |-----------------------------------------------------------------|
 |---------2-------5-------2---4---5---0---------------------------|
 |-2-------------------------------------------0---4---------------|
 |-0-------------------------------------------0---2---------------|
 |-----------------------------------------------------------------|

 |-------------------------------------------------------------------------|
 |-------------------------------------------------------------------------|
 |---------------------------------------------------------5-------2-------|
 |-------------------------------------------------------------------------|
 |-5-------7-----------------------------------------------3-------0-------|
 |-------------0-0-0-0-0-0-0-0-0-0-0-0-0-0-0-0-0-0-0-0-0-0-----------------|

 |-------------------------------------------------------------------------|
 |-------------------------------------------------------------------------|
 |-----------------------------------------8-------5---4---8-------5---9---|
 |-------------------------------------------------------------------------|
 |-----------------------------------------6-------3---2---6-------3---7---|
 |-0-0-0-0-0-0-0-0-0-0-0-0-0-0-0-0-0-0-0-0---------------------------------|

 |-----------------------------------------------------------------|
 |-----------------------------------------------------------------|
 |-----------------------------------------------------------------|
 |-------------------------------------------------4---x---4---x---|
 |---------79-x----2---x---2---x-----------57-x----2---x---2---x---|
 |-00000000--------0---x---0---x---00000000------------------------|

 |-----------------------------------------------------------------|
 |-----------------------------------------------------------------|
 |-----------------------------------------------------------------|
 |-------------------------------------------------4---x---4---4---|
 |---------79-x----2---x---2---x-----------57-x----2---x---2---2---|
 |-00000000--------0---x---0---x---00000000------------------------|

 |---------------------------------------------------------------------|
 |---------------------------------------------------------------------|
 |---------------------------------------------------------------------|
 |---------------------------------------------------------------------|
 |---------5-7-----7-7-6-6-----------------5-7-----11-11-12-12-7-7-7-7-|
 |-0-0-0-0-----0-0---------5-5-4-4-0-0-0-0-----0-0---------------------|

 |---------------------------------------------------------------------|
 |---------------------------------------------------------------------|
 |---------------------------------------------------------------------|
 |---------------------------------------------------------------------|
 |---------5-7-----7-7-6-6-----------------5-7-----11-11-12-12-7-7-7-7-|
 |-0-0-0-0-----0-0---------5-5-4-4-0-0-0-0-----0-0---------------------|

 |---------------------------------------------------------------------|
 |---------------------------------------------------------------------|
 |-9-----------11---8-----------11---12---(12)--------11---------------|
 |---------------------------------------------------------------------|
 |-7------------9---6------------9---10---(10)---------9---------------|
 |----------------------------------------0-0-0-0-0-0------------------|

 |---------------------------------------------------------------------|
 |---------------------------------------------------------------------|
 |-9-----------11---8-----------11---12---(12)--------11---------------|
 |---------------------------------------------------------------------|
 |-7------------9---6------------9---10---(10)---------9---------------|
 |----------------------------------------0-0-0-0----------------------|

 |--------------------------------------------------------------------|
 |--------------------------------------------------------------------|
 |-8---------------9-----------11---8-----------11---12---(12)--------|
 |--------------------------------------------------------------------|
 |-6---------------7------------9---6------------9---10---(10)--------|
 |--------------------------------------------------------0-0-0-0-0-0-|

 |---------------------------------------------------------------------|
 |---------------------------------------------------------------------|
 |-11---------------9-----------11---8-----------11---12---(12)--------|
 |---------------------------------------------------------------------|
 |--9---------------7------------9---6------------9---10---(10)--------|
 |---------------------------------------------------------0-0-0-0-----|

 |----------------------------------|
 |----------------------------------|
 |-11---------------8---------------|
 |----------------------------------|
 |--9---------------6---------------|
 |----------------------------------|

 |-----------------------------------------------------------------|
 |-----------------------------------------------------------------|
 |-----------------------------------------------------------------|
 |-------------------------------------------------4---x---4---x---|
 |---------79-x----2---x---2---x-----------57-x----2---x---2---x---|
 |-00000000--------0---x---0---x---00000000------------------------|

 |-----------------------------------------------------------------|
 |-----------------------------------------------------------------|
 |-----------------------------------------------------------------|
 |-------------------------------------------------4---x---4---4---|
 |---------79-x----2---x---2---x-----------57-x----2---x---2---2---|
 |-00000000--------0---x---0---x---00000000------------------------|

 |---------------------------------------------------------------------|
 |---------------------------------------------------------------------|
 |---------------------------------------------------------------------|
 |---------------------------------------------------------------------|
 |---------5-7-----7-7-6-6-----------------5-7-----11-11-12-12-7-7-7-7-|
 |-0-0-0-0-----0-0---------5-5-4-4-0-0-0-0-----0-0---------------------|

 |-----------------------------------------------------------------------|
 |-----------------------------------------------------------------------|
 |-----------------------------------------------------------------------|
 |-----------------------------------------------------------------------|
 |---------5-7-----7-7-6-6-----------------5-7-----11-11-12-12-7-7-7-7-x-|
 |-0-0-0-0-----0-0---------5-5-4-4-0-0-0-0-----0-0-----------------------|

 |--------------------------------------------------------------------------|
 |--------------------------------------------------------------------------|
 |--------------------------------------------------------------------------|
 |------------------------5---------------4-------4-5-4---------------------|
 |--------2---------------3---------------2---------------2-----------------|
 |--------0-----------------------------------------------0-----------------|

 |-----------------------------------------------------------------|
 |-----------------------------------------------------------------|
 |---------2-------5-------2---4---5---0---------------------------|
 |-2-------------------------------------------0---4---------------|
 |-0-------------------------------------------0---2---------------|
 |-----------------------------------------------------------------|

 |-------------------------------------------------------------------|
 |-------------------------------------------------------------------|
 |-------------------------------------------------------------------|
 |-----------------5---------------4-------4-5-4---------------------|
 |-2---------------3---------------2---------------2-----------------|
 |-0-----------------------------------------------0-----------------|


 |-------------------------------------------------------------------------|
 |-------------------------------------------------------------------------|
 |---------2-------5-------2---4---5---0-----------------------------------|
 |-2-------------------------------------------0---4---------------x-------|
 |-0-------------------------------------------0---2---------------x-------|
 |-------------------------------------------------------------------------|

 |-------------------------------------------------------------------------|
 |-------------------------------------------------------------------------|
 |-------------------------------------------------------------------------|
 |---------1-----2---------------------------------------------------------|
 |---------------------2-----3---------------------------------------------|
 |---------------------------------4---5---1---0-----------1---0-----------|

 |-----------------------------------------------------------------|
 |-----------------------------------------------------------------|
 |-----------------------------------------------------------------|
 |-1-----2---------------------------------------------------------|
 |-------------2-----3---------------------------------------------|
 |-------------------------4---5---1---0-----------1---0-----------|

 |-----------------------------------------------------------------|
 |-----------------------------------------------------------------|
 |-----------------------------------------------------------------|
 |---------------------------------5---x---5---x---4---x---4---x---|
 |-----------------------------------------------------------------|
 |-1---0-----------1---0-------------------------------------------|

 |-----------------------------------------------------------------|
 |-----------------------------------------------------------------|
 |-----------------------------------------------------------------|
 |---------------------------------5---x---5---x---4---x---4---x---|
 |-----------------------------------------------------------------|
 |-1---0-----------1---0-------------------------------------------|

 |---------------------------------------------------------------------|
 |---------------------------------------------------------------------|
 |---------------------------------------------------------------------|
 |---------------------------------------------------------------------|
 |---------5-7-----7-7-6-6-----------------5-7-----11-11-12-12-7-7-7-7-|
 |-0-0-0-0-----0-0---------5-5-4-4-0-0-0-0-----0-0---------------------|

 |---------------------------------------------------------------------|
 |---------------------------------------------------------------------|
 |---------------------------------------------------------------------|
 |---------------------------------------------------------------------|
 |---------5-7-----7-7-6-6-----------------5-7-----11-11-12-12-7-7-7-7-|
 |-0-0-0-0-----0-0---------5-5-4-4-0-0-0-0-----0-0---------------------|

 |---------------------------------------------------------------------|
 |---------------------------------------------------------------------|
 |-9-----------11---8-----------11---12---(12)--------11---------------|
 |---------------------------------------------------------------------|
 |-7------------9---6------------9---10---(10)---------9---------------|
 |----------------------------------------0-0-0-0-0-0------------------|


 |---------------------------------------------------------------------|
 |---------------------------------------------------------------------|
 |-9-----------11---8-----------11---12---(12)--------11---------------|
 |---------------------------------------------------------------------|
 |-7------------9---6------------9---10---(10)---------9---------------|
 |----------------------------------------0-0-0-0----------------------|

 |--------------------------------------------------------------------|
 |--------------------------------------------------------------------|
 |-8---------------9-----------11---8-----------11---12---(12)--------|
 |--------------------------------------------------------------------|
 |-6---------------7------------9---6------------9---10---(10)--------|
 |--------------------------------------------------------0-0-0-0-0-0-|

 |---------------------------------------------------------------------|
 |---------------------------------------------------------------------|
 |-11---------------9-----------11---8-----------11---12---(12)--------|
 |---------------------------------------------------------------------|
 |--9---------------7------------9---6------------9---10---(10)--------|
 |---------------------------------------------------------0-0-0-0-----|

 |----------------------------------|
 |----------------------------------|
 |-11---------------8---------------|
 |----------------------------------|
 |--9---------------6---------------|
 |----------------------------------|

 |--------------------------------------------------------------------------|
 |--------------------------------------------------------------------------|
 |--------------------------Pause between-----------------------------------|
 |--------------------------3:02 and 3:11-----------------------------------|
 |--------------------------------------------------------------------------|
 |--------------------------------------------------------------------------|

 |-------------------------------------------------------------------|
 |-------------------------------------------------------------------|
 |-------------------------------------------------------------------|
 |-----------------5---------------4-------4-5-4---------------------|
 |-2---------------3---------------2---------------2-----------------|
 |-0-----------------------------------------------0-----------------|

 |-----------------------------------------------------------------|
 |-----------------------------------------------------------------|
 |---------2-------5-------2---4---5---0---------------------------|
 |-2-------------------------------------------0---4---------------|
 |-0-------------------------------------------0---2---------------|
 |-----------------------------------------------------------------|

 |-------------------------------------------------------------------|
 |-------------------------------------------------------------------|
 |-------------------------------------------------------------------|
 |-----------------5---------------4-------4-5-4---------------------|
 |-2---------------3---------------2---------------2-----------------|
 |-0-----------------------------------------------0-----------------|


 |-----------------------------------------------------------------|
 |-----------------------------------------------------------------|
 |---------2-------5-------2---4---5---0---------------------------|
 |-2-------------------------------------------0---4---------------|
 |-0-------------------------------------------0---2---------------|
 |-----------------------------------------------------------------|

 |-------------------------------------------------------------------------|
 |-------------------------------------------------------------------------|
 |---------------------------------------------------------5-------2-------|
 |-------------------------------------------------------------------------|
 |-5-------7-----------------------------------------------3-------0-------|
 |-------------0-0-0-0-0-0-0-0-0-0-0-0-0-0-0-0-0-0-0-0-0-0-----------------|

 |-------------------------------------------------------------------------|
 |-------------------------------------------------------------------------|
 |-----------------------------------------8-------5---4---8-------5---9---|
 |-------------------------------------------------------------------------|
 |-----------------------------------------6-------3---2---6-------3---7---|
 |-0-0-0-0-0-0-0-0-0-0-0-0-0-0-0-0-0-0-0-0---------------------------------|

 |-----------------------------------------------------------------|
 |-----------------------------------------------------------------|
 |-----------------------------------------------------------------|
 |-1-----2---------------------------------------------------------|
 |-------------2-----3---------------------------------------------|
 |-------------------------4---5---1---0-----------1---0-----------|

 |-----------------------------------------------------------------|
 |-----------------------------------------------------------------|
 |-----------------------------------------------------------------|
 |-1-----2---------------------------------------------------------|
 |-------------2-----3---------------------------------------------|
 |-------------------------4---5---1---0-----------1---0-----------|

 |-------------------------------------------------------------------|
 |-------------------------------------------------------------------|
 |-------------------------------------------------------------------|
 |-------------------------------------------------------------------|
 |-------------------------------------------------------------------|
 |-1---0-----------1---0-----------1---0-----------1---0-----------x-|

 
************************************

| x   mute note
| (#) let ring

************************************
Добавлено: 22.07.2013
Другие материалы по этой песне:

Страница создана 23.04.2012
http://primanota.ru/zonaria/rendered-in-vain-chords.htm
Привет, Гость.
Предлагаем пройти революционный курс по гитаре.
Подарок от PrimaNota.Ru, забирай!