PrimaNota.ru - самый крупный в мире бесплатный архив песенных текстов, аккордов, табулатур и нот


Zonaria - At War With The Inferior - текст песни, таба, видео

Регистрация Запомнить меня
Войти через:  Facebook Google Twitter Vk Yandex Mail.ru

Zonaria - At War With The Inferior - текст песни, таба, видео

Печатать
Просмотров: 79
-----------------------------------------------------------------------------
                        AT WAR WITH THE INFERIOR - Zonaria
-----------------------------------------------------------------------------
Tabbed by: Samee
Email: xcrunner64@yahoo.com

Tuning: Drop A (for 6-string guitars): A E A D F# B

 |---------------------------------|
 |---------------------------------|
 |----------Pause between----------|
 |----------0:00 and 0:06----------|
 |---------------------------------|
 |---------------------------------|

 |---------------------------------------|
 |---------------------------------------|
 |---------------------------------------|X6
 |---------------------------------------|
 |-12--13-12-12--16---12--13-12-12--11---|
 |-12--13-12-12--16---12--13-12-12--11---|

 |--------------------------------------------------------4----4-------|
 |--------------------------------------------------------4------4-3-0-|
 |-----------------5--x--4----5--5-5--5-5-5-5--5--x--4----0------------|
 |-----------------5--x--4----5--5-5--5-5-5-5--5--x--4-----------------|
 |-11----------5\--3--x--2----3--3-3--3-3-3-3--3--x--2-----------------|
 |-11----------5\------------------------------------------------------|
PM                            .  .    . . .

 |----------------------------------------3-----|
 |----------------------------------------3-----|
 |-5--x--4----5--5-5--5-5-5-5--5--x--4----0-----|
 |-5--x--4----5--5-5--5-5-5-5--5--x--4----------|
 |-3--x--2----3--3-3--3-3-3-3--3--x--2----------|
 |----------------------------------------------|
PM            .  .    . . .

 |---------------------------------------------------|
 |---------------------------------------------------|
 |-7--8-7-8--7--7--8-7-5--4--7--8-7-8--7--7--8-7-4---|
 |-7--8-7-8--7--7--8-7-5--4--7--8-7-8--7--7--8-7-4---|
 |-5--6-5-6--5--5--6-5-3--2--5--6-5-6--5--5--6-5-4---|
 |---------------------------------------------------|

 |-------------------------------------------------------|
 |-------------------------------------------------------|
 |-7--8-7-8--7--7--8-7-5--4--7--8-7-8--7--7--8-7---------|
 |-7--8-7-8--7--7--8-7-5--4--7--8-7-8--7--7--8-7-7-------|
 |-5--6-5-6--5--5--6-5-3--2--5--6-5-6--5--5--6-5-7---5\--|
 |-----------------------------------------------7---5\--|

 |-----------------------------------------------------------------------|
 |-----------------------------------------------------------------------|
 |--------------------------Pause between--------------------------------|
 |--------------------------0:55 and 1:07--------------------------------|
 |-----------------------------------------------------------------------|
 |-----------------------------------------------------------------------|

 |----------------------------------------4----4-------|
 |----------------------------------------4------4-3-0-|
 |-5--x--4----5--5-5--5-5-5-5--5--x--4----0------------|
 |-5--x--4----5--5-5--5-5-5-5--5--x--4-----------------|
 |-3--x--2----3--3-3--3-3-3-3--3--x--2-----------------|
 |-----------------------------------------------------|
PM            .  .    . . .

 |----------------------------------------3-----|
 |----------------------------------------3-----|
 |-5--x--4----5--5-5--5-5-5-5--5--x--4----0-----|
 |-5--x--4----5--5-5--5-5-5-5--5--x--4----------|
 |-3--x--2----3--3-3--3-3-3-3--3--x--2----------|
 |----------------------------------------------|
PM            .  .    . . .

 |----------------------------------------4----4-------|
 |----------------------------------------4------4-3-0-|
 |-5--x--4----5--5-5--5-5-5-5--5--x--4----0------------|
 |-5--x--4----5--5-5--5-5-5-5--5--x--4-----------------|
 |-3--x--2----3--3-3--3-3-3-3--3--x--2-----------------|
 |-----------------------------------------------------|
PM            .  .    . . .

 |----------------------------------------3-----|
 |----------------------------------------3-----|
 |-5--x--4----5--5-5--5-5-5-5--5--x--4----0-----|
 |-5--x--4----5--5-5--5-5-5-5--5--x--4----------|
 |-3--x--2----3--3-3--3-3-3-3--3--x--2----------|
 |----------------------------------------------|
PM            .  .    . . .

 |-----------7-------------7---------10~~------------15--14------------|
 |-7~~----5------3--5~~-------5~~------------7--10------------12br-----|
 |---------------------------------------------------------------------|X2
 |---------------------------------------------------------------------|
 |---------------------------------------------------------------------|
 |---------------------------------------------------------------------|

 |-----|---------------------------------------|
 |-----|---------------------------------------|
 |-----|---------------------------------------|X8
 |-----|---------------------------------------|
 |-12\-|-12--13-12-12--16---12--13-12-12--11---|
 |-12\-|-12--13-12-12--16---12--13-12-12--11---|

 |---------------------------------------------------|
 |---------------------------------------------------|
 |-7--8-7-8--7--7--8-7-5--4--7--8-7-8--7--7--8-7-4---|
 |-7--8-7-8--7--7--8-7-5--4--7--8-7-8--7--7--8-7-4---|
 |-5--6-5-6--5--5--6-5-3--2--5--6-5-6--5--5--6-5-4---|
 |---------------------------------------------------|

 |---------------------------------------------------|
 |---------------------------------------------------|
 |-7--8-7-8--7--7--8-7-5--4--7--8-7-8--7--7--8-7-----|
 |-7--8-7-8--7--7--8-7-5--4--7--8-7-8--7--7--8-7-7---|
 |-5--6-5-6--5--5--6-5-3--2--5--6-5-6--5--5--6-5-7---|
 |-----------------------------------------------7---|

 |---------------------------------------------------|
 |---------------------------------------------------|
 |-7--8-7-8--7--7--8-7-5--4--7--8-7-8--7--7--8-7-4---|
 |-7--8-7-8--7--7--8-7-5--4--7--8-7-8--7--7--8-7-4---|
 |-5--6-5-6--5--5--6-5-3--2--5--6-5-6--5--5--6-5-4---|
 |---------------------------------------------------|

 |---------------------------------------------------|
 |---------------------------------------------------|
 |-7--8-7-8--7--7--8-7-5--4--7--8-7-8--7--7--8-7-----|
 |-7--8-7-8--7--7--8-7-5--4--7--8-7-8--7--7--8-7-7---|
 |-5--6-5-6--5--5--6-5-3--2--5--6-5-6--5--5--6-5-7---|
 |-----------------------------------------------7---|

 |-----------7-------------7---------10~~------------15--14------------|
 |-7~~----5------3--5~~-------5~~------------7--10------------12br-----|
 |---------------------------------------------------------------------|X2
 |---------------------------------------------------------------------|
 |---------------------------------------------------------------------|
 |---------------------------------------------------------------------|



************************************

| /   slide up
| \   slide down
| ~   vibrato
| x   mute note
| br  Bend release

************************************

Добавлено: 21.07.2013
Другие материалы по этой песне:

Страница создана 08.07.2013
http://primanota.ru/zonaria/at-war-with-the-inferior-chords.htm
Привет, Гость.
Предлагаем пройти революционный курс по гитаре.
Подарок от PrimaNota.Ru, забирай!