PrimaNota.ru - самый крупный в мире бесплатный архив песенных текстов, аккордов, табулатур и нот


Zombies - Road Runner - бас-таба, видео

Регистрация Запомнить меня
Войти через:  Facebook Google Twitter Vk Yandex Mail.ru

Zombies - Road Runner - бас-таба, видео

Печатать
Просмотров: 83
Tabbed by: 6METAL6BASSIST6
E-mail: petergriffinav@gmail.com

Tuning: EADG

0:10

G|----------------------------------------------------------------|
D|----------------------------------------------------------------| x2
A|7---7---5-----------------------7---7---5-----------------------|
E|------------7-------0---4---2---------------7-------0---4---2---|

G|----------------------------------------------------------------|
D|----------------------------------------------------------------|
A|7---7---5-----------------------7---7---5-------4---------------|
E|------------7-------0---4---2---------------------------7-------|

G|----------------------------------------------------------------|
D|------------------------4-------------------------------4-------|
A|--------4---4---7---7-------7-----------4---4---7---7-----------|
E|5---5---------------------------5---5---------------------------|

G|----------------------------------------------------------------|
D|----------------------------------------------------------------|
A|7---7---5-----------------------7---7---5-----------------------|
E|------------7-------0---4---2---------------7-------0---4---2---|

G|----------------------------------------------------------------|
D|----------------------------------------------------------------|
A|----------------------------------------------------------------|
E|7---7---7---7-------7---7---7---5-------------------------------|

0:31

G|----------------------------------------------------------------|
D|----------------------------------------------------------------|
A|7---7---5-----------------------7---7---5-----------------------|
E|------------7-------0---4---2---------------7-------0---4---2---|

G|----------------------------------------------------------------|
D|----------------------------------------------------------------|
A|------------4---5---4-------------------------------------------|
E|0---4---7---------------7---4-----------------------------------|

G|----------------------------------------------------------------|
D|----------------------------------------------------------------|
A|------------4---5---4-------------------------------------------|
E|0---4---7---------------7---4---0-------------------------------|

G|----------------------------------------------------------------|
D|------------4---5---4-------------------------------------------|
A|----4---7---------------7---4-----------------------------------|
E|5-------------------------------5-------------------------------|

G|----------------------------------------------------------------|
D|----------------------------------------------------------------|
A|------------4---5---4-------------------------------------------|
E|0---4---7---------------7---4---0-------------------------------|

G|----------------------------------------------------------------|
D|----------------------------------------------------------------|
A|----------------------------------------------------------------|
E|7---7---7---7-------7---7---7---5-------------------------------|

0:52

G|----------------------------------------------------------------|
D|----------------------------------------------------------------| x2
A|7---7---5-----------------------7---7---5-----------------------|
E|------------7-------0---4---2---------------7-------0---4---2---|

G|----------------------------------------------------------------|
D|----------------------------------------------------------------|
A|7---7---5-----------------------7---7---5---5---4---------------|
E|------------7-------0---4---2---------------------------7-------|

G|----------------------------------------------------------------|
D|------------------------4-------------------------------4-------|
A|--------4---4---7---7-------7-----------4---4---7---7-----------|
E|5---5---------------------------5---5---------------------------|

G|----------------------------------------------------------------|
D|----------------------------------------------------------------|
A|7---7---5-----------------------7---7---5-----------------------|
E|------------7-------0---4---2---------------7-------0---4---2---|

G|----------------------------------------------------------------|
D|----------------------------------------------------------------|
A|----------------------------------------------------------------|
E|7---7---7---7-------7---7---7---5-------------------------------|

1:14

G|----------------------------------------------------------------|
D|----------------------------------------------------------------|
A|7---7---5-----------------------7---7---5-----------------------|
E|------------7-------0---4---2---------------7-------0---4---2---|

G|----------------------------------------------------------------|
D|----------------------------------------------------------------| x2
A|------------4---5---4-------------------------------------------|
E|0---4---7---------------7---4---0-------------------------------|

G|----------------------------------------------------------------|
D|------------4---5---4-------------------------------------------|
A|----4---7---------------7---4-----------------------------------|
E|5-------------------------------5-------------------------------|

G|----------------------------------------------------------------|
D|----------------------------------------------------------------|
A|------------4---5---4-------------------------------------------|
E|0---4---7---------------7---4---0-------------------------------|

G|----------------------------------------------------------------|
D|----------------------------------------------------------------|
A|----------------------------------------------------------------|
E|7---7---7---7-------7---7---7---5-------------------------------|

1:35

G|----------------------------------------------------------------|
D|----------------------------------------------------------------| x3
A|7---5---4-------7---5---4-------7---5---4-------7---5---4-------|
E|------------7---------------7---------------7---------------7---|

G|----------------------------------------------------------------|
D|------------4---5---4-----------------------4---5---4-----------|
A|----4---7---------------7---4-------4---7---------------7---4---|
E|5-------------------------------5-------------------------------|

G|----------------------------------------------------------------|
D|----------------------------------------------------------------|
A|7---5---4-------7---5---4-------7---5---4-------7---5---4-------|
E|------------7---------------7---------------7---------------7---|

G|----------------------------------------------------------------|
D|----------------------------------------------------------------|
A|----------------------------------------------------------------|
E|7---7---7---7---7---7---7---7---5-------------------------------|

G|----------------------------------------------------------------|
D|----------------------------------------------------------------|
A|7---7---5-----------------------7---------------------7---------|
E|------------7-------0---4---2-----------------------------------|
Добавлено: 11.06.2015
Другие материалы по этой песне:
  • Аккорды и текст

Страница создана 11.06.2015
http://primanota.ru/zombies/road-runner-chords.htm
Привет, Гость.
Предлагаем пройти революционный курс по гитаре.
Подарок от PrimaNota.Ru, забирай!