PrimaNota.ru - самый крупный в мире бесплатный архив песенных текстов, аккордов, табулатур и нот


Zombies - Im Going Home - бас-таба, видео

Регистрация Запомнить меня
Войти через:  Facebook Google Twitter Vk Yandex Mail.ru

Zombies - Im Going Home - бас-таба, видео

Печатать
Просмотров: 88
Tabbed by: 6METAL6BASSIST6
E-mail: petergriffinav@gmail.com

Tuning: EADG

G|----------------------------------------------------------------|
D|----------------------------------------------------------------|
A|7---------------7---------------7---------------7---------------|
E|----------------------------------------------------------------|

G|----------------------------------------------------------------|
D|----------------------------------------------------------------| x3
A|--------------------------------7---------------7---------------|
E|5---------------5-----------------------------------------------|

0:19

G|----------------------------------------------------------------|
D|----------------------------------------------------------------|
A|7---7-------5---7---7-------5---7---7-------5---7---7-------7---|
E|--------7---------------7---------------7---------------7-------|

G|----------------------------------------------------------------|
D|----------------------------------------------------------------| x2
A|----4---7---4-------4---7---4---7---7-------5---7---7-------7---|
E|5---------------5-----------------------7---------------7-------|

G|----------------------------------------------------------------|
D|----------------------------------------------------------------|
A|----4---7---4-------4---7---4---7---7-------5---7-----5-----5---|
E|5---------------5-----------------------7-----------7-----7-----|

G|----------------------------------------------------------------|
D|----------------------------------------------------------------|
A|7-----------------------------------------------------5-----5---|
E|----------------------------------------------------7-----7-----|

G|----------------------------------------------------------------|
D|----------------------------------------------------------------|
A|7-------------------------------7---7---5---5---4---4-----------|
E|--------------------------------------------------------7---7---|

0:43

G|----------------------------------------------------------------|
D|----------------------------------------------------------------|
A|----4---7---4-------4---7---4---7---7-------5---7---7-------7---|
E|5---------------5-----------------------7---------------7-------|

G|----------------------------------------------------------------|
D|----------------------------------------------------------------|
A|----4---7---4-------4---7---4---7---7-------5---7-------4-------|
E|5---------------5-----------------------7-------------------7---|

G|----------------------------------------------------------------|
D|----------------------------------------------------------------|
A|----4---7---4-------4---7---4---7---7-------5---7---7-------7---|
E|5---------------5-----------------------7---------------7-------|

G|----------------------------------------------------------------|
D|----------------------------------------------------------------|
A|----4---7---4-------4---7---4---7---7-------5---7---------------|
E|5---------------5-----------------------7-----------------------|

0:59

G|----------------------------------------------------------------|
D|----------------------------------------------------------------|
A|7---7---5---5---4---4-----------7---7---5---5---4---4-----------|
E|------------------------7---7---------------------------7---7---|

G|----------------------------------------------------------------|
D|------------------------4---4-----------------------------------|
A|--------4---4---7---7-----------7---7---5---5---4---4-----------|
E|5---5---------------------------------------------------7---5---|

G|----------------------------------------------------------------|
D|----------------------------------------------------------------|
A|----------------------------------------------------------------|
E|7---------------------------7---5---------------------------7---|

G|----------------------------------------------------------------|
D|----------------------------------------------------------------|
A|7---7-------5---7---7-------5---7---7-------5---7-----5-----5---|
E|--------7---------------7---------------7-----------7-----7-----|

G|----------------------------------------------------------------|
D|----------------------------------------------------------------|
A|7-----------------------------------------------------5-----5---|
E|----------------------------------------------------7-----7-----|

G|----------------------------------------------------------------|
D|----------------------------------------------------------------|
A|7-------------------------------7---7---5---5---4---4-----------|
E|--------------------------------------------------------7---7---|

1:23

G|------------------------------------------------4---------------|
D|----------------------------------------6---7-------7---6-------| x3
A|----4---5---6---7---5---4-------7---7-----------------------7---|
E|5---------------------------7-----------------------------------|

G|----------------------------------------------------------------|
D|----------------------------------------------------------------|
A|----------------------------------------------------------------|
E|5---------------------------------------------------------------|

G|----------------------------------------------------------------|
D|----------------------------------------------------------------|
A|--------------------------------7---7---5---5-------------------|
E|------------------------------------------------8---8---7---7---|

G|----------------------------------------------------------------|
D|----------------------------------------------------------------|
A|7---------------------------------------------------------------|
E|----------------------------------------------------------------|
Добавлено: 11.06.2015
Другие материалы по этой песне:
  • Аккорды и текст

Страница создана 11.06.2015
http://primanota.ru/zombies/im-going-home-chords.htm
Привет, Гость.
Предлагаем пройти революционный курс по гитаре.
Подарок от PrimaNota.Ru, забирай!