PrimaNota.ru - самый крупный в мире бесплатный архив песенных текстов, аккордов, табулатур и нот


Zombies - Going Out Of My Head - бас-таба, видео

Регистрация Запомнить меня
Войти через:  Facebook Google Twitter Vk Yandex Mail.ru

Zombies - Going Out Of My Head - бас-таба, видео

Печатать
Просмотров: 142
Tabbed by: 6METAL6BASSIST6
E-mail: petergriffinav@gmail.com

Tuning: EADG

G|----------------------------------------------------------------|
D|----------------------------------------------------------------| x3
A|7-----------7---7---------------7-----------7---7---------------|
E|----------------------------------------------------------------|

G|----------------------------------------------------------------|
D|----------------------------------------------------------------|
A|----------------------------------------------------------------|
E|5-----------5---5---------------5-----------5---5---------------|

G|----------------------------------------------------------------|
D|----------------------------------------------------------------|
A|--------------------------------5-----------5---5-------5-------|
E|5-----------5---5-----------5-------------------------------5---|

G|----------------------------------------------------------------|
D|----------------------------------------------------------------|
A|--------------------------------2-----------2---2-------2-------|
E|3-----------3---3-----------3-----------------------------------|

G|----------------------------------------------------------------|
D|----------------------------------------------------------------|
A|----------------2-----------2---3---3---3---3---5---5---5---5---|
E|3-----------3---------------------------------------------------|

0:32

G|----------------------------------------------------------------|
D|----------------------------------------------------------------| x3
A|7-----------7---7---------------7-----------7---7---------------|
E|----------------------------------------------------------------|

G|----------------------------------------------------------------|
D|----------------------------------------------------------------|
A|----------------------------------------------------------------|
E|5-----------5---5---------------5-----------5---5---------------|

G|----------------------------------------------------------------|
D|------------------------------------------------------7---------|
A|--------------------------------5---5---5---5---5---5---5-------|
E|5-----------5---5-----------5-------------------------------5---|

G|----------------------------------------------------------------|
D|----------------------------------------------------------------|
A|--------------------------------2-----------2---2-------2-------|
E|3-----------3---3-----------3-----------------------------------|

G|----------------------------------------------------------------|
D|----------------------------------------------------------------|
A|----------------2-----------2---3---3---3---3---5---5---5---5---|
E|3-----------3---------------------------------------------------|

G|----------------------------------------------------------------|
D|----------------------------------------------------------------|
A|7-----------7---7-----------7---7-------------------------------|
E|----------------------------------------7---7---7---7---7---7---|

1:06

G|----------------------------------------------------------------|
D|----------------------------------------------------------------| x2
A|7-----------7---7-----------7---9-----------9---9-----------9---|
E|----------------------------------------------------------------|

G|----------------------------------------------------------------|
D|----------------------------------------------------------------|
A|7-----------9-------9---7-----------9-------9---7-------9-------|
E|----------------------------------------------------------------|

G|----------------------------------------------------------------|
D|----------------------------------------------6-----------------|
A|7-----------9-------9---7---------7-----9-----------9-----7-----|
E|----------------------------------------------------------------|

G|----------------------------------------------------------------|
D|--------------------------------7-----------7---7-----------7---|
A|9-----------9---9-----------9-----------------------------------|
E|----------------------------------------------------------------|

G|----------------------------------------------------------------|
D|--------------------------------5-----------5---5---------------|
A|7-----------7---7-----------7-----------------------------------|
E|----------------------------------------------------------------|

G|----------------------------------------------------------------|
D|----------------------------------------------------------------|
A|----------------------------------------------------------------|
E|7-------------------------------7---------------7---------------|

G|----------------------------------------------------------------|
D|----------------------------------------------------------------|
A|----------------------------------------------------------------|
E|7-----------7---7---------------7-----------7---7---------------|

1:42

G|----------------------------------------------------------------|
D|----------------------------------------------------------------|
A|7-----------7---7---------------7-----------7---7---------------|
E|----------------------------------------------------------------|

G|----------------------------------------------------------------|
D|----------------------------------------------------------------|
A|7-----------7---7---------------7-------------------------------|
E|----------------------------------------7---7---7---7---7---7---|

G|----------------------------------------------------------------|
D|----------------------------------------------------------------| x2
A|7-----------7---7-----------7---9-----------9---9-----------9---|
E|----------------------------------------------------------------|

G|----------------------------------------------------------------|
D|----------------------------------------------------------------|
A|7-----------9-------9---7-----------9-------9---7-------9-------|
E|----------------------------------------------------------------|

G|----------------------------------------------------------------|
D|----------------------------------------------6-----------------|
A|7-----------9-------9---7---------7-----9-----------9-----7-----|
E|----------------------------------------------------------------|

G|----------------------------------------------------------------|
D|--------------------------------7-----------7---7-----------7---|
A|9-----------9---9-----------9-----------------------------------|
E|----------------------------------------------------------------|

G|----------------------------------------------------------------|
D|--------------------------------5-----------5---5---------------|
A|7-----------7---7-----------7-----------------------------------|
E|----------------------------------------------------------------|

G|----------------------------------------------------------------|
D|----------------------------------------------------------------|
A|----------------------------------------------------------------|
E|7-------------------------------7---------------7---------------|

G|----------------------------------------------------------------|
D|----------------------------------------------------------------|
A|----------------------------------------------------------------|
E|7-----------7---7---------------7-----------7---7---------------|

2:27

G|----------------------------------------------------------------|
D|----------------------------------------------------------------|
A|7-----------7---7---------------7-----------7---7---------------|
E|----------------------------------------------------------------|

G|----------------------------------------------------------------|
D|----------------------------------------------------------------|
A|7-----------7---7---------------7-------------------------------|
E|----------------------------------------7---7---7---7---7---7---|

G|----------------------------------------------------------------|
D|----------------------------------------------------------------| x2
A|7-----------7---7-----------7---9-----------9---9-----------9---|
E|----------------------------------------------------------------|

G|----------------------------------------------------------------|
D|----------------------------------------------------------------| x3
A|7-----------9-------9---7-----------9-------9---7-------9-------|
E|----------------------------------------------------------------|

G|--------------------------------|
D|--------------------------------| 
A|7-------------------------------|
E|--------------------------------|
Добавлено: 11.06.2015
Другие материалы по этой песне:
  • Аккорды и текст

Страница создана 11.06.2015
http://primanota.ru/zombies/going-out-of-my-head-chords.htm
Привет, Гость.
Предлагаем пройти революционный курс по гитаре.
Подарок от PrimaNota.Ru, забирай!