PrimaNota.ru - самый крупный в мире бесплатный архив песенных текстов, аккордов, табулатур и нот


Zombiekrig - Den Mrkaste Tiden R Hr - таба

Регистрация Запомнить меня
Войти через:  Facebook Google Twitter Vk Yandex Mail.ru

Zombiekrig - Den Mrkaste Tiden R Hr - таба

Печатать
Просмотров: 54
Zombiekrig - Den Mörkaste Tiden Är Här (The Darkest Time Is Here in english)
Updated 02/07/2012

This is an awesome thrashmetal band from Gothenburg, Sweden.

There are no tabs of their songs out there, that Ive come across alteast.
So heres my tab of one of their songs. This tab is only for the rythem guitar, 
havnt figured out the solo.
Look this band up! They're great!
You can find them on spotify.

Tab done by Niklas Pettersson

Standard E tuning.


. = Palm Mute
~ = Let Ring

|--------------|-----------------------------------------------| X2
|--------------|-----------------------------------------------|
|--------------|-----------------------------------------------|
|-7-7-7-8-8-8-8|-----------------------------------------------|
|-7-7-7-8-8-8-8|-----------------------------------------------|
|-5-5-5-6-6-6-6|0000000000000000000000000000000000000000000000-|
                ..............................................




|--------------|----------------------------------------------------| X1
|--------------|----------------------------------------------------|
|--------------|-7/9--------------7/9--------------7/9--------------|
|-7-7-7-8-8-8-8|-7/9--------------7/9--------------7/9--------------|
|-7-7-7-8-8-8-8|-5/7--------------5/7--------------5/7--------------|
|-5-5-5-6-6-6-6|-----000000000000-----000000000000-----000000000000-|
                     ............     ............     ............



|--------------|----------------------------------------------------| X1
|--------------|----------------------------------------------------|
|--------------|-7/9--------------7/9--------------7/9--------------|
|-7-7-7-8-8-8-8|-7/9--------------7/9--------------7/9--------------|
|-7-7-7-8-8-8-8|-5/7-777777777777-5/7-777777777777-5/7-777777777777-|
|-5-5-5-6-6-6-6|----------------------------------------------------|
                     ............     ............     ............



|---------------|--------------| X1
|---------------|--------------|
|---------------|--------------|
|-7-7-7-8-8-8-8-|5-5-5-6-6-6-6-|
|-7-7-7-8-8-8-8-|5-5-5-6-6-6-6-|
|-5-5-5-6-6-6-6-|3-3-3-4-4-4-4-|


                                            Third time end with:
|----------------------------------| X3    |---------------------|
|----------------------------------|       |---------------------|
|----------------------------------|       |---------------------|
|--5\4-------------------------5-5-|       |-5-5-5--4-4-4--3-3-3-|
|--5\4-------------------------5-5-|       |-5-5-5--4-4-4--3-3-3-|
|--3\2-2-2-2-2-2-2-2-2-2-2-2-2-3-3-|       |-3-3-3--2-2-2--1-1-1-|
       . . . . . . . . . . . .


                                     Fourth time is:
|--------------------------------||--------------------------------|
|--------------------------------||--------------------------------|
|--7/9---10--7---9---------------||--7/9---10--7---9---------------|  X2
|--7/9---10--7---9---------------||--7/9---10--7---9---------------|
|--5/7---8---5---7---------------||--5/7---8---5---7-7-7-7-8-8-8-8-|
|------0---0---0---000-0-000-000-||------0---0---0---5-5-5-6-6-6-6-|
       .   .   .   ... . ... ...         .   .   .   



|-----|
|-----|
|-----| this is the lead into the verse.
|-6~~-|
|-6~~-|
|-4~~-|


Verse.

|---------------------------------------------X2|--------------|
|-----------------------------------------------|--------------|
|-----------------------------------------------|--------------|
|-----------------------------------------------|7-7-7-8-8-8-8-|
|-----------------------------------------------|7-7-7-8-8-8-8-|
|0000000000000000000000000000000000000000000000-|5-5-5-6-6-6-6-|
 ..............................................


     Last time end with

|---------------|--------------|
|---------------|--------------|
|---------------|--------------|
|-7-7-7-8-8-8-8-|5-5-5-6-6-6-6-|
|-7-7-7-8-8-8-8-|5-5-5-6-6-6-6-|
|-5-5-5-6-6-6-6-|3-3-3-4-4-4-4-|



                                             Third time end with:
|-----------------------------|----| X3    |---------------------|
|-----------------------------|----|       |---------------------|
|-----------------------------|----|       |---------------------|
|--5\4------------------------|5-5-|       |-5-5-5--4-4-4--3-3-3-|
|--5\4------------------------|5-5-|       |-5-5-5--4-4-4--3-3-3-|
|--3\2-2-2-2-2-2-2-2-2-2-2-2-2|3-3-|       |-3-3-3--2-2-2--1-1-1-|
       . . . . . . . . . . . .



|-----------------------------------------------|--------------| X2
|-----------------------------------------------|--------------|
|-----------------------------------------------|--------------|
|-----------------------------------------------|7-7-7-8-8-8-8-|
|-----------------------------------------------|7-7-7-8-8-8-8-|
|0000000000000000000000000000000000000000000000-|5-5-5-6-6-6-6-|
 ..............................................



|----------------------------------------------------|--------------|
|----------------------------------------------------|--------------|
|-7/9--------------7/9--------------7/9--------------|--------------|
|-7/9--------------7/9--------------7/9--------------|7-7-7-8-8-8-8-|
|-5/7--------------5/7--------------5/7--------------|7-7-7-8-8-8-8-|
|-----000000000000-----000000000000-----000000000000-|5-5-5-6-6-6-6-|
      ............     ............     ............



|----------------------------------------------------| X1
|----------------------------------------------------|
|-7/9--------------7/9--------------7/9--------------|
|-7/9--------------7/9--------------7/9--------------|
|-5/7-777777777777-5/7-777777777777-5/7-777777777777-|
|----------------------------------------------------|
      ............     ............     ............


|------------------------------|
|------------------------------|
|------------------------------|
|-7-7-7-8-8-8-8--5-5-5-6-6-6-6-|
|-7-7-7-8-8-8-8--5-5-5-6-6-6-6-|
|-5-5-5-6-6-6-6--3-3-3-4-4-4-4-|


                                             Third time end with: 
|-----------------------------|----| X3    |---------------------|
|-----------------------------|----|       |---------------------|
|-----------------------------|----|       |---------------------|
|--5\4------------------------|5-5-|       |-5-5-5--4-4-4--3-3-3-|
|--5\4------------------------|5-5-|       |-5-5-5--4-4-4--3-3-3-|
|--3\2-2-2-2-2-2-2-2-2-2-2-2-2|3-3-|       |-3-3-3--2-2-2--1-1-1-|
       . . . . . . . . . . . .



|---------------| X4
|---------------|
|---------------|
|---------------|
|---2---2---1~~-|
|-0---0---0-----|


|---------------------------------| X8
|---------------------------------|
|---------5---------------5-------|
|---------5---------------5-------|
|---------3---------------3-------|
|-0-0-0-0---0-0-0-000-0-0---0-0-0-|
  . . . .   . . . ... . .   . . .


|-------------------------------| X4
|-------------------------------|
|-----4-----4-----3~--3-2-------|
|-----4-----4-----3~--3-2-------|
|-----2-----2-----1~--1-0-------|
|-0-0---0-0---0-0---------3-2-1-|
  . .   . .   . .         . . .



|---------------------------------| X4
|---------------------------------|
|---------5---------------5-------|
|---------5---------------5-------|
|---------3---------------3-------|
|-0-0-0-0---0-0-0-000-0-0---0-0-0-|
  . . . .   . . . ... . .   . . .



|-------------------------------| X4
|-------------------------------|
|-----4-----4-----3~--3-2-------|
|-----4-----4-----3~--3-2-------|
|-----2-----2-----1~--1-0-------|
|-0-0---0-0---0-0---------3-2-1-|
  . .   . .   . .         . . .



|--------------|-----------------------------------------------| X2
|--------------|-----------------------------------------------|
|--------------|-----------------------------------------------|
|-7-7-7-8-8-8-8|-----------------------------------------------|
|-7-7-7-8-8-8-8|-----------------------------------------------|
|-5-5-5-6-6-6-6|0000000000000000000000000000000000000000000000-|
                ..............................................





|--------------|----------------------------------------------------| X1
|--------------|----------------------------------------------------|
|--------------|-7/9--------------7/9--------------7/9--------------|
|-7-7-7-8-8-8-8|-7/9--------------7/9--------------7/9--------------|
|-7-7-7-8-8-8-8|-5/7--------------5/7--------------5/7--------------|
|-5-5-5-6-6-6-6|-----000000000000-----000000000000-----000000000000-|
                     ............     ............     ............



|--------------|----------------------------------------------------| X1
|--------------|----------------------------------------------------|
|--------------|-7/9--------------7/9--------------7/9--------------|
|-7-7-7-8-8-8-8|-7/9--------------7/9--------------7/9--------------|
|-7-7-7-8-8-8-8|-5/7-777777777777-5/7-777777777777-5/7-777777777777-|
|-5-5-5-6-6-6-6|----------------------------------------------------|
                     ............     ............     ............



|--------------|----------------------------------------------------| X1
|--------------|----------------------------------------------------|
|--------------|-7/9--------------7/9--------------7/9--------------|
|-7-7-7-8-8-8-8|-7/9--------------7/9--------------7/9--------------|
|-7-7-7-8-8-8-8|-5/7--------------5/7--------------5/7--------------|
|-5-5-5-6-6-6-6|-----000000000000-----000000000000-----000000000000-|
                     ............     ............     ............




|--------------|----------------------------------------------------| X1
|--------------|----------------------------------------------------|
|--------------|-7/9--------------7/9--------------7/9--------------|
|-7-7-7-8-8-8-8|-7/9--------------7/9--------------7/9--------------|
|-7-7-7-8-8-8-8|-5/7-777777777777-5/7-777777777777-5/7-777777777777-|
|-5-5-5-6-6-6-6|----------------------------------------------------|
                     ............     ............     ............



|--------------|--------------------------------------------------| X1
|--------------|--------------------------------------------------|
|--------------|-4---------------4---------------4----------------|
|-7-7-7-8-8-8-8|-4---------------4---------------4----------------|
|-7-7-7-8-8-8-8|-2---------------2---------------2----------------|
|-5-5-5-6-6-6-6|-2--000000000000-2--000000000000-2--000000000000--|
                    ............    ............    ............



|---------------|
|---------------|
|---------------|
|-7-7-7-8-8-8-8-|
|-7-7-7-8-8-8-8-|
|-5-5-5-6-6-6-6-|




|---------------------------------------|
|---------------------------------------|
|---------------------------------------|
|-4--4--4--4--4--4--4--4--4--4--4--4--4-|
|-4--4--4--4--4--4--4--4--4--4--4--4--4-|
|-2--2--2--2--2--2--2--2--2--2--2--2--2-|



|---------------|
|---------------|
|---------------|
|-7-7-7-8-8-8-8-|
|-7-7-7-8-8-8-8-|
|-5-5-5-6-6-6-6-|


http://www.burningwest.com/zombiekrig/
http://www.facebook.com/zombiekrig
Добавлено: 02.10.2013
Другие материалы по этой песне:
  • Аккорды и текст

Страница создана 31.07.2013
http://primanota.ru/zombiekrig/den-mrkaste-tiden-r-hr-chords.htm
Привет, Гость.
Предлагаем пройти революционный курс по гитаре.
Подарок от PrimaNota.Ru, забирай!