PrimaNota.ru - самый крупный в мире бесплатный архив песенных текстов, аккордов, табулатур и нот


Zolof The Rock And Roll Destroyer - Mr Song - таба, видео

Регистрация Запомнить меня
Войти через:  Facebook Google Twitter Vk Yandex Mail.ru

Zolof The Rock And Roll Destroyer - Mr Song - таба, видео

Печатать
Просмотров: 54
Artist: Zolof The Rock And Roll Destroyer
Song: Mr. Song
Album: Zolof The Rock And Roll Destroyer

Chords:
  Em  HighE
E|----------|
B|----------|
G|----------|
D|-2----14--|
A|-2----14--|
E|-0----12--|

Main Riff:
e|-------------------|
B|-------------------|
G|-------------------|
D|-----4-0------3-4--|
A|-5-5---------------|
E|----------5-5------|


Verse 1:

E|------------------------------|
B|-7--7--8-8------7--7--3-3-----|
G|------------------------------|
D|------------------------------|
A|------------------------------|
E|------------------------------|

Verse:
I'm bashful
I'm blue
And I really want to dance with you
I have horns
And a tail
And my ego is for sale
I'm corny
I'm kind and
I hope to be aligned
I have tricks
And trails
And my trails won't be unveiled

Chorus:
Em    HighE          Em
Uh oh shake it baby yeah
Em     HighE                Em
Uh oh yeah yeah yeah yeah yeah yeah!

Post Chorus:
E|-----------------------------|
B|--9--9--12-12----9---9--5-5--|
G|-----------------------------|
D|-----------------------------|
A|-----------------------------|
E|-----------------------------|


Verse 2:
I'm lonely
I'm lost
Lazy dazy I'll doze off
I have quirks
And kooks
My favorite author owski buk
I'm groovy
I'm gray
And my groove and gray obey
I have spoofs
And spins
And poof the spoof spins grins

(Chorus)
Paging Mr. Song                 
Добавлено: 08.08.2013
Другие материалы по этой песне:
  • Аккорды и текст

Страница создана 08.08.2013
http://primanota.ru/zolof-the-rock-and-roll-destroyer/mr-song-chords.htm
Привет, Гость.
Предлагаем пройти революционный курс по гитаре.
Подарок от PrimaNota.Ru, забирай!