PrimaNota.ru - самый крупный в мире бесплатный архив песенных текстов, аккордов, табулатур и нот


Zoe - Va Lactea - бас-таба, видео

Регистрация Запомнить меня
Войти через:  Facebook Google Twitter Vk Yandex Mail.ru

Zoe - Va Lactea - бас-таба, видео

Печатать
Просмотров: 126
----------------------------------------------------------------------------
			     VÍA LACTEA - Zoe
----------------------------------------------------------------------------

Tabbed By : Luis Gustavo Hernández Collado
e-mail: ltavo_87@hotmail.com

Tuning:EADG

Intro

G|------------------------------|
D|------------------------------|  X4
A|-7-9-10-9--------7-5-7^-------|
E|----------8-7-8^--------8-7-8-|

^ = let ring

Verso

G|------------------------------|
D|------------------------------|  X3
A|-7-9-10-9--------7-5-7^-------|
E|----------8-7-8^--------8-7-8-|

G|------------------------------|
D|------------------------------|
A|-7-9-10-9--------7-5-7^-------|
E|----------8-7-8^--------3^-0^-|

Coro

G|--------------------------------------------------------|
D|--------------------------------------------------------|
A|-3-33-3/5-55-5/2-22-2/3-33-3/0-00-0/3-33-3--------------|
E|-------------------------------------------3-33-33-33-3-|

G|----------------------------------------------|
D|----------------------------------------------|
A|333333------333333------333333------333/555---|
E|------333333------333333------333333-------0^-|

Bridge

G|------------|
D|------------|
A|-7^---------|
E|------------|

G|------------------------------|
D|------------------------------|  X2
A|-7-9-10-9--------7-5-7^-------|
E|----------8-7-8^--------8-7-8-|

Verso 2

G|------------------------------|
D|------------------------------|  X3
A|-7-9-10-9--------7-5-7^-------|
E|----------8-7-8^--------8-7-8-|

G|------------------------------|
D|------------------------------|
A|-7-9-10-9--------7-5-7^-------|
E|----------8-7-8^--------3^-0^-|

Coro

G|--------------------------------------------------------|
D|--------------------------------------------------------|
A|-3-33-3/5-55-5/2-22-2/3-33-3/0-00-0/3-33-3--------------|
E|-------------------------------------------3-33-33-33-3-|

G|----------------------------------------------|
D|----------------------------------------------|
A|333333------333333------333333------333/555---|
E|------333333------333333------333333-------0^-|

Solo

G|------------------------------|
D|------------------------------|  X2
A|-7-9-10-9--------7-5-7^-------|
E|----------8-7-8^--------8-7-8-|

G|------------------------------|
D|------------------------------|  X2
A|-3^--5^--2^--3^--0^--3^-------|
E|-------------------------0^---|

Outro

G|---------------------------------------------------|
D|---------------------------------------------------|
A|333333------333333------333333------3^--5^---------|
E|------333333------333333------333333--------0^--0^-|
Добавлено: 29.02.2012
Другие материалы по этой песне:
  • Аккорды и текст

Страница создана 29.02.2012
http://primanota.ru/zoe/va-lactea-chords.htm
Привет, Гость.
Предлагаем пройти революционный курс по гитаре.
Подарок от PrimaNota.Ru, забирай!