PrimaNota.ru - самый крупный в мире бесплатный архив песенных текстов, аккордов, табулатур и нот


Zoe - Soce - бас-таба, видео

Регистрация Запомнить меня
Войти через:  Facebook Google Twitter Vk Yandex Mail.ru

Zoe - Soce - бас-таба, видео

Печатать
Просмотров: 104
ARTISTA-Zoe
CANCION-Soñe
ALBUM-Rocanlover


INTRO

G-----------------------------------------------------------------------|
D---------7-------------------------------------------------------------|
A-9-9-7-9---9-9-9-7-9--------------5------------------------3-----------|
E------------------------5-7-7-5-7---7-7-7-5-7----3-5-5-3-5---5-5-5-3-5-|

G----------------------------------------------|
D----------------------------------------------|
A-5--5-5-5--5-5-0h5--5-5-5-5-------------------|
E----------------------------------------------|

VERSO X3

G-----------------------------------------------------------------------|
D---------7-------------------------------------------------------------|
A-9-9-7-9---9-9-9-7-9--------------5------------------------3-----------|
E------------------------5-7-7-5-7---7-7-7-5-7----3-5-5-3-5---5-5-5-3-5-|

G----------------------------------------------|
D----------------------------------------------|
A-5--5-5-5--5-5-0h5--5-5-5-5-------------------|
E----------------------------------------------|


CORO X2

G-9/12-12--9/12-12----------------------------------------------|
D------------------7/9-9--7/9-9---------------------------------|
A---------------------------------------------------------------|
E--------------------------------3/5-5--3/5-5---5/7-7--5/7-7----|

BRIDGE

G--------------------------------------------------|
D---------7------------7-----------7---------------|
A-9-9-7-9---9--9-9-7-9---9--9-9-7-9--9--9-9-7-9----|
E--------------------------------------------------|

VERSO X3

G-----------------------------------------------------------------------|
D---------7-------------------------------------------------------------|
A-9-9-7-9---9-9-9-7-9--------------5------------------------3-----------|
E------------------------5-7-7-5-7---7-7-7-5-7----3-5-5-3-5---5-5-5-3-5-|

G----------------------------------------------|
D----------------------------------------------|
A-5--5-5-5--5-5-0h5--5-5-5-5-------------------|
E----------------------------------------------|

CORO X7

G-9/12-12--9/12-12----------------------------------------------|
D------------------7/9-9--7/9-9---------------------------------|
A---------------------------------------------------------------|
E--------------------------------3/5-5--3/5-5---5/7-7--5/7-7----|

FINAL

G--------------------------------------------------|
D---------7------------7-----------7---------------|
A-9-9-7-9---9--9-9-7-9---9--9-9-7-9--9--9-9-7-9----|
E--------------------------------------------------|
Добавлено: 29.05.2012
Другие материалы по этой песне:
  • Аккорды и текст

Страница создана 29.05.2012
http://primanota.ru/zoe/soce-chords.htm
Привет, Гость.
Предлагаем пройти революционный курс по гитаре.
Подарок от PrimaNota.Ru, забирай!