PrimaNota.ru - самый крупный в мире бесплатный архив песенных текстов, аккордов, табулатур и нот


Zita Swoon - Ice Guitars - таба, видео

Регистрация Запомнить меня
Войти через:  Facebook Google Twitter Vk Yandex Mail.ru

Zita Swoon - Ice Guitars - таба, видео

Печатать
Просмотров: 119
subject: Ice guitars
     by: Zita Swoon ( aka Moondog Jr.)
   from: Every day I wear a greasy black feather on my hat
by Kris van Rompaye en Bert Wouters

please send your comments to bert_wouters@hotmail.com

h=hammer-on

1) ---------------------------------
   ----------------------------------
   -----------------------------3--2-
   -0--3--0-----------------0--3--2--
   ----------0--3--0--1-----------
   ----------------------------------

2) break 
     
    --------------------------------
    ----------------------------------
    ---------------3--2--------------
    --0--0-------3--2--------------
    --------0h1--------------------
    --------------------------------

 Then back to 1)


This is all we have for Ice Guitars right now 
Remember to slap the slap the strings at the A-string
And addict your life to the great Stef Kamil Carlens
     
Добавлено: 05.09.2013
Вам также может быть интересно:
Другие материалы по этой песне:
  • Аккорды и текст

Страница создана 26.08.2013
http://primanota.ru/zita-swoon/ice-guitars-chords.htm
Привет, Гость.
Предлагаем пройти революционный курс по гитаре.
Подарок от PrimaNota.Ru, забирай!