PrimaNota.ru - самый крупный в мире бесплатный архив песенных текстов, аккордов, табулатур и нот


Ziggy Marley - Reggae In My Head - бас-таба, видео

Регистрация Запомнить меня
Войти через:  Facebook Google Twitter Vk Yandex Mail.ru

Ziggy Marley - Reggae In My Head - бас-таба, видео

Печатать
Просмотров: 162
Уроки эстрадного вокала в Санкт-Петербурге
Here are some of the lines they drop

G------------------|
D-----------7-7--7-|
A---------7--7--7--|
E--5-5-5-----------|


G-----------7--7-----|
D---------7--7--7--9-|
A--5-5-5-------------|
E--------------------|


G------------------|
D-----------7-7--7-|
A---------7--7--7--|
E--5-5-5-----------|


just listen to the song and mash it up!

G------------------|
D-----------7-7--4-|
A---------7--7--7--|
E--5-5-5-----------|

G-----------7--7-----|
D---------7--7--7--9-|
A--5-5-5-------------|
E--------------------|

G-----------7--7-----|
D---------7--7--7--9-|
A--5-5-5-------------|
E--------------------|

G------------------|
D-----------7-7--7-|
A---------7--7--7--|
E--5-5-5-----------|
Добавлено: 09.12.2013
Другие материалы по этой песне:
  • Аккорды и текст

Страница создана 09.12.2013
http://primanota.ru/ziggy-marley/reggae-in-my-head-chords.htm
Привет, Гость.
Предлагаем пройти революционный курс по гитаре.
Подарок от PrimaNota.Ru, забирай!