PrimaNota.ru - самый крупный в мире бесплатный архив песенных текстов, аккордов, табулатур и нот


Zico Chain - Your Favourite Client - таба, видео

Регистрация Запомнить меня
Войти через:  Facebook Google Twitter Vk Yandex Mail.ru

Zico Chain - Your Favourite Client - таба, видео

Печатать
Просмотров: 88
Tuning:CGCFAD

(Main Riff)
D|-----------------------------------------------------------------|
A|-----------------------------------------------------------------|
F|-----------------------------------------------------------------|
C|-----------------------------------------------------------------|
G|-0-0-5-3-0-6-6-6-0-0-5-3-0-6-6-6-0-0-5-3-0-6-6-6-0-0-5-3-0-6-6-6-|
C|-----------------------------------------------------------------|

Don't push me; I just want a fucking answer
D|---------------------------------|
A|---------------------------------|
F|-6-6-6-6-6-6-6-6-7-7-7-7-7-7-7-7-|
C|-4-4-4-4-4-4-4-4-5-5-5-5-5-5-6-6-|
G|-4-4-4-4-4-4-4-4-5-5-5-5-5-5-6-6-|
C|-4-4-4-4-4-4-4-4-5-5-5-5-5-5-6-6-|

I get so lonely I could die
D|-------------------------------|
A|-------------------------------|
F|-7---7---7---7---8---8---8---5-|
C|-7---7---7---7---8---8---8---5-|
G|-5---5---5---5---6---6---6---3-|
C|---------------------------0---|

Then I watch you touch yourself and think of someone else
D|-----------------------------------------------------------------|
A|-----------------------------------------------------------------|
F|-7-7-7-7-7-7-7-7-7-7-7-7-7-7-7-7-8-8-8-8-8-8-8-8-8-8-8-8-8-8-8-8-|
C|-7-7-7-7-7-7-7-7-7-7-7-7-7-7-7-7-8-8-8-8-8-8-8-8-8-8-8-8-8-8-8-8-|
G|-5-5-5-5-5-5-5-5-5-5-5-5-5-5-5-5-6-6-6-6-6-6-6-6-6-6-6-6-6-6-6-6-|
C|-----------------------------------------------------------------|

(Chorus)
D|----------------------------------|
A|----------------------------------|
F|-9-9-9-9-9-7-7-7-7-7-7-7-10101010-|
C|-9-9-9-9-9-7-7-7-5-5-5-5-8-8-8-8--|
G|-7-7-7-7-7-5-5-5-5-5-5-5-8-8-8-8--|
C|-----------------5-5-5-5-8-8-8-8--|

Then you'll always be my whore (end of first chorus)
D|---------------------------------|
A|--(Palm mute and open out)-------|
F|---------------------------------|
C|-7-7-7-7-7-7-7-7-7-7-7-7-7-7-7-7-|
G|-7-7-7-7-7-7-7-7-7-7-7-7-7-7-7-7-|
C|-7-7-7-7-7-7-7-7-7-7-7-7-7-7-7-7-|

You'll always be adored
D|---------------------------------|
A|---------------------------------|
F|---------------------------------|
C|-9-------7---9---7---------------|
G|-7-------7---7---5---------------|
C|-----------------0---------------|

(I'm no good at tabbing solos so sorry)

(Outro part one)
D|-----------------|
A|-----------------|
F|----57-5---8-8-8-|
C|----57-5---8-8-8-|
G|-0--35-3-0-6-6-6-|
C|-----------------|

(Outro part two - just guitar)
D|-----------------|
A|-----------------|
F|-----------------|
C|-----------------|
G|-0-3-5-3-0-6-6-6-|
C|-----------------|
Добавлено: 09.11.2013
Другие материалы по этой песне:
  • Аккорды и текст

Страница создана 09.11.2013
http://primanota.ru/zico-chain/your-favourite-client-chords.htm
Привет, Гость.
Предлагаем пройти революционный курс по гитаре.
Подарок от PrimaNota.Ru, забирай!