PrimaNota.ru - самый крупный в мире бесплатный архив песенных текстов, аккордов, табулатур и нот


Zico Chain - Nihilism - таба, видео

Регистрация Запомнить меня
Войти через:  Facebook Google Twitter Vk Yandex Mail.ru

Zico Chain - Nihilism - таба, видео

Печатать
Просмотров: 80
-------------------------------------------------------------------
-------------------- Z I C O         C H A I N---------------------
-------------------------------------------------------------------

SONG:   "NIHILISM"
ALBUM:  "FOOD"
TUNING: C-G-C-F-A-D (DROPPED C)

INTRO: (ADD ALOT OF FUZZ ON YOUR AMP FOR RIGHT SOUND)

F-----------------------------------|
A-----------------------------------|
D-------7---5-----------------------|   (THIS RIFF TIMES 3)
C-----7---7---7---7---5-------------|
G-------------------------8---7---8-|
C--0-(LET RING)---------------------|

F----------------------------------|
A----------------------------------|
D------7---5-(BEND)----------------|
C----7---7-----------12(SLIDE)-----|
G--------------------12(SLIDE)-----|
C--0-------------------------------|

F----------------------------------------|
A----------------------------------------|
D--7---------7---------5/8-8-8-8(BEND)---|
C--7---------7---------7/8-8-8-8---------|   (PLAY 4 TIMES)
G--5--0-0-0--5--0-0-0--5/6-6-6-6---------|
C-----0-0-0-----0-0-0--------------------|

VERSE: (MUTED NOTES SOUND PRETTY GOOD FOR THIS

F-----------------------------------------------|
A-----------------------------------------------|
D-----------------------------------------------|
C------12-----12------12------12------13--------|    (PLAY 8 TIMES)
G----12-----12------12------12------13--13------|
C--12-----12------12------12------13------------|
"WHO AM I TO SAY I HATE IT ALL?..."

CHORUS: (LOUD AS FUCK HEAVY AS FUCK)

F--------------------------------------------------------------------|
A--------------------------------------------------------------------|
D-7-7-7-7-7-7-7-7--3-3-3-3-3-3-3-3-------------------5-5-5-5-5-5-5-5-|
C-7-7-7-7-7-7-7-7--3-3-3-3-3-3-3-3--5-5-5-5-5-5-5-5--5-5-5-5-5-5-5-5-|
G-5-5-5-5-5-5-5-5--1-1-1-1-1-1-1-1--5-5-5-5-5-5-5-5--3-3-3-3-3-3-3-3-|
C-----------------------------------5-5-5-5-5-5-5-5------------------|
"MY DESIRE, MY DESIRE, I PLEAD NO WAR"

F-------------------------------------------------------------------|
A-------------------------------------------------------------------|
D-7-7-X-X-X--3-3-X-X-X-------------------5-5-5-5-5-5-5-5------------|
C-7-7-X-X-X--3-3-X-X-X--5-5-5-5-5-5-5-5--5-5-5-5-5-5-5-5------------|
G-5-5-X-X-X--1-1-X-X-X--5-5-5-5-5-5-5-5--3-3-3-3-3-3-3-3------------|
C-----------------------5-5-5-5-5-5-5-5-----------------------------|
"IS IT IMPORTANT, IS IT IMPORTANT OUR KIDS KNOW MORE?"

F--------------------------------------------------------------------|
A--------------------------------------------------------------------|
D-7-7-7-7-7-7-7-7--3-3-3-3-3-3-3-3-------------------5-5-5-5-5-5-5-5-|
C-7-7-7-7-7-7-7-7--3-3-3-3-3-3-3-3--5-5-5-5-5-5-5-5--5-5-5-5-5-5-5-5-|
G-5-5-5-5-5-5-5-5--1-1-1-1-1-1-1-1--5-5-5-5-5-5-5-5--3-3-3-3-3-3-3-3-|
C-----------------------------------5-5-5-5-5-5-5-5------------------|
"MY DESIRE, MY DESIRE, I'LL QUIT NO MORE"

F--------------------------------------------------------------|
A--------------------------------------------------------------|
D--------------------------------------------------------------|
C--8-8-8-8-8-8-8-8(SLIDE)10-10-10-10-10-10-10-10--0-(LET RING)-|
G--8-8-8-8-8-8-8-8(SLIDE)10-10-10-10-10-10-10-10--0-(LET RING)-|
C--8-8-8-8-8-8-8-8(SLIDE)10-10-10-10-10-10-10-10--0-(LET RING)-|
"BUT ITS ALL I KNOW"

F----------------------------------------|
A----------------------------------------|
D--7---------7---------5/8-8-8-8(BEND)---|
C--7---------7---------7/8-8-8-8---------|   (PLAY 4 TIMES)
G--5--0-0-0--5--0-0-0--5/6-6-6-6---------|
C-----0-0-0-----0-0-0--------------------|

VERSE: (MUTED NOTES SOUND PRETTY GOOD FOR THIS

F-----------------------------------------------|
A-----------------------------------------------|
D-----------------------------------------------|
C------12-----12------12------12------13--------|    (PLAY 8 TIMES)
G----12-----12------12------12------13--13------|
C--12-----12------12------12------13------------|
"WHO AM I TO SAY WHATS REALLY WRONG?"

CHORUS: (LOUD AS FUCK HEAVY AS FUCK)

F--------------------------------------------------------------------|
A--------------------------------------------------------------------|
D-7-7-7-7-7-7-7-7--3-3-3-3-3-3-3-3-------------------5-5-5-5-5-5-5-5-|
C-7-7-7-7-7-7-7-7--3-3-3-3-3-3-3-3--5-5-5-5-5-5-5-5--5-5-5-5-5-5-5-5-|
G-5-5-5-5-5-5-5-5--1-1-1-1-1-1-1-1--5-5-5-5-5-5-5-5--3-3-3-3-3-3-3-3-|
C-----------------------------------5-5-5-5-5-5-5-5------------------|
"MY DESIRE, MY DESIRE, I PLEAD NO WAR"

F-------------------------------------------------------------------|
A-------------------------------------------------------------------|
D-7-7-X-X-X--3-3-X-X-X-------------------5-5-5-5-5-5-5-5------------|
C-7-7-X-X-X--3-3-X-X-X--5-5-5-5-5-5-5-5--5-5-5-5-5-5-5-5------------|
G-5-5-X-X-X--1-1-X-X-X--5-5-5-5-5-5-5-5--3-3-3-3-3-3-3-3------------|
C-----------------------5-5-5-5-5-5-5-5-----------------------------|
"IS IT IMPORTANT, IS IT IMPORTANT OUR KIDS KNOW MORE?"

F--------------------------------------------------------------------|
A--------------------------------------------------------------------|
D-7-7-7-7-7-7-7-7--3-3-3-3-3-3-3-3-------------------5-5-5-5-5-5-5-5-|
C-7-7-7-7-7-7-7-7--3-3-3-3-3-3-3-3--5-5-5-5-5-5-5-5--5-5-5-5-5-5-5-5-|
G-5-5-5-5-5-5-5-5--1-1-1-1-1-1-1-1--5-5-5-5-5-5-5-5--3-3-3-3-3-3-3-3-|
C-----------------------------------5-5-5-5-5-5-5-5------------------|
"MY DESIRE, MY DESIRE, I'LL QUIT NO MORE"

F--------------------------------------------------------------|
A--------------------------------------------------------------|
D--------------------------------------------------------------|
C--8-8-8-8-8-8-8-8(SLIDE)10-10-10-10-10-10-10-10--0-(LET RING)-|
G--8-8-8-8-8-8-8-8(SLIDE)10-10-10-10-10-10-10-10--0-(LET RING)-|
C--8-8-8-8-8-8-8-8(SLIDE)10-10-10-10-10-10-10-10--0-(LET RING)-|
"BUT ITS ALL I KNOW"

F-----------------------------------|
A-----------------------------------|
D-------7---5-----------------------|   (THIS RIFF TIMES 4)
C-----7---7---7---7---5-------------|
G-------------------------8---7---8-|
C--0-(LET RING)---------------------|

F-------------------|
A-------------------|
D-------------------|
C--7--8-8-8-8-8-8---|   (THIS RIFF TIMES 4)
G--7--8-8-8-8-8-8---|
C--7--8-8-8-8-8-8---|

IN THE BRIEF PAUSE THERE ARE PICKSLIDES, SCRAPES, BEHIND THE NUT
PICKING AND GENERAL AMP NOISE.

SOLO/INTERLUDE

F--------------------------------------------|
A--------------------------------------------|
D--------------------------------------------|
C-----------------------------------13-------|
G---------------------------------13--13-----|
C--12-12--12-12--12-12--12-12--13------------|

F---------------------------------------------|
A---------------------------------------------|
D---------------------------------------------|
C---------------------------------------------|
G------------------------------11-12-11-------|(BEND)
C--12-12--12-12--12-12--12-12-----------------|

F--------------------------------------------|
A--------------------------------------------|
D--------------------------------------------|
C-----------------------------------13-------|
G---------------------------------13--13-----|
C--12-12--12-12--12-12--12-12--13------------|

F--------------------------------------------|
A--------------------------------------------|
D--------------------------------------------|
C------------------------------12(LET RING)--|
G------------------------------12(LET RING)--|
C--12-12--12-12--12-12--12-12--12(LET RING)--|

CHORUS: (LOUD AS FUCK HEAVY AS FUCK)

F--------------------------------------------------------------------|
A--------------------------------------------------------------------|
D-7-7-7-7-7-7-7-7--3-3-3-3-3-3-3-3-------------------5-5-5-5-5-5-5-5-|
C-7-7-7-7-7-7-7-7--3-3-3-3-3-3-3-3--5-5-5-5-5-5-5-5--5-5-5-5-5-5-5-5-|
G-5-5-5-5-5-5-5-5--1-1-1-1-1-1-1-1--5-5-5-5-5-5-5-5--3-3-3-3-3-3-3-3-|
C-----------------------------------5-5-5-5-5-5-5-5------------------|
"MY DESIRE, MY DESIRE, I PLEAD NO WAR"

F-------------------------------------------------------------------|
A-------------------------------------------------------------------|
D-7-7-X-X-X--3-3-X-X-X-------------------5-5-5-5-5-5-5-5------------|
C-7-7-X-X-X--3-3-X-X-X--5-5-5-5-5-5-5-5--5-5-5-5-5-5-5-5------------|
G-5-5-X-X-X--1-1-X-X-X--5-5-5-5-5-5-5-5--3-3-3-3-3-3-3-3------------|
C-----------------------5-5-5-5-5-5-5-5-----------------------------|
"IS IT IMPORTANT, IS IT IMPORTANT OUR KIDS KNOW MORE?"

F--------------------------------------------------------------------|
A--------------------------------------------------------------------|
D-7-7-7-7-7-7-7-7--3-3-3-3-3-3-3-3-------------------5-5-5-5-5-5-5-5-|
C-7-7-7-7-7-7-7-7--3-3-3-3-3-3-3-3--5-5-5-5-5-5-5-5--5-5-5-5-5-5-5-5-|
G-5-5-5-5-5-5-5-5--1-1-1-1-1-1-1-1--5-5-5-5-5-5-5-5--3-3-3-3-3-3-3-3-|
C-----------------------------------5-5-5-5-5-5-5-5------------------|
"MY DESIRE, MY DESIRE, I'LL QUIT NO MORE"

F--------------------------------------------------------------|
A--------------------------------------------------------------|
D--------------------------------------------------------------|
C--8-8-8-8-8-8-8-8(SLIDE)10-10-10-10-10-10-10-10--0-(LET RING)-|
G--8-8-8-8-8-8-8-8(SLIDE)10-10-10-10-10-10-10-10--0-(LET RING)-|
C--8-8-8-8-8-8-8-8(SLIDE)10-10-10-10-10-10-10-10--0-(LET RING)-|
"BUT ITS ALL I KNOW"

YO THATS ABOUT IT.
IF I MISSED ANYTHING LET ME KNOW
CHEERS
JON
Добавлено: 01.08.2013
Другие материалы по этой песне:
  • Аккорды и текст

Страница создана 01.08.2013
http://primanota.ru/zico-chain/nihilism-chords.htm
Привет, Гость.
Предлагаем пройти революционный курс по гитаре.
Подарок от PrimaNota.Ru, забирай!