PrimaNota.ru - самый крупный в мире бесплатный архив песенных текстов, аккордов, табулатур и нот


Zico Chain - Food - таба, видео

Регистрация Запомнить меня
Войти через:  Facebook Google Twitter Vk Yandex Mail.ru

Zico Chain - Food - таба, видео

Печатать
Просмотров: 75
gahaha this is what I was looking to do. How sad am I???

Credits to

   1. Pretty Pictures-----------------------|the bayliff
   2. Where Would You rather Be?------------|the bayliff
   3. Last Weeks Genius---------------------|Spoonstuffz
   4. Junk=================================tulsa29
   5. Roll Over============================Gary the Hann
   6. Preach===============================the bayliff
   7. No Hoper Boy=========================the bayliff
   8. Your Favourite Client================the bayliff
   9. Nihilism=============================JON
  10. All Eyes On Me=======================the bayliff
  11. Anaemia =============================Spoonstuffz

1. Pretty Pictures

::bass::

D|-------------------------------|
A|-------------------------------|
F|-12~---15~---17/19~---17-17-17-|
C|-------------------------------|
G|-10~---13~---15/17~---15-15-15-|
C|-------------------------------|

D|-------------------------------|
A|-------------------------------|
F|-------------------------------|
C|-553h56\5553h56\5553h56\51-1-1-|
G|-553h56\5553h56\5553h56\51-1-1-|
C|-553h56\5553h56\5553h56\51-1-1-|x4

D|--------------------------------------------|
A|--------------------------------------------|
F|-5---9---10---------------------------------|
C|--------------553h56\5553h56\5553h56\51-1-1-|
G|-3---7---8----553h56\5553h56\5553h56\51-1-1-|
C|--------------553h56\5553h56\5553h56\51-1-1-|x2

D|-----------------------|
A|-----------------------|
F|-----------------------|
C|-3--336-6-6-1--1-8-8-8-|
G|-3--336-6-6-1--1-8-8-8-|
C|-3--336-6-6-1--1-8-8-8-|

D|-------------------------|
A|-------------------------|
F|-------------------------|
C|-3--336-6-6-1--1-8h98hp8-|
G|-3--336-6-6-1--1-8h98h98-|
C|-3--336-6-6-1--1-8h98h98-|

D|-----------------------|
A|-----------------------|
F|-----------------------|
C|-3--336-6-6-1--1-8-8-8-|
G|-3--336-6-6-1--1-8-8-8-|
C|-3--336-6-6-1--1-8-8-8-|x2

D|-------------------------------|
A|-------------------------------|
F|-------------------------------|
C|-553h56\5553h56\5553h56\51-1-1-|
G|-553h56\5553h56\5553h56\51-1-1-|
C|-553h56\5553h56\5553h56\51-1-1-|x4

D|--------------------------------------------|
A|--------------------------------------------|
F|-5---9---10---------------------------------|
C|--------------553h56\5553h56\5553h56\51-1-1-|
G|-3---7---8----553h56\5553h56\5553h56\51-1-1-|
C|--------------553h56\5553h56\5553h56\51-1-1-|x2

D|-----------------------|
A|-----------------------|
F|-----------------------|
C|-3--336-6-6-1--1-8-8-8-|
G|-3--336-6-6-1--1-8-8-8-|
C|-3--336-6-6-1--1-8-8-8-|

D|-------------------------|
A|-------------------------|
F|-------------------------|
C|-3--336-6-6-1--1-8h98hp8-|
G|-3--336-6-6-1--1-8h98h98-|
C|-3--336-6-6-1--1-8h98h98-|

D|-----------------------|
A|-----------------------|
F|-----------------------|
C|-3--336-6-6-1--1-8-8-8-|
G|-3--336-6-6-1--1-8-8-8-|
C|-3--336-6-6-1--1-8-8-8-|x2

::two bar rest::

D|---------------------------------------------|
A|---------------------------------------------|
F|---------------------------------------------|
C|5553h56\51-1-1-553h56\5553h56\5553h56\51-1-1-|
G|5553h56\51-1-1-553h56\5553h56\5553h56\51-1-1-|
C|5553h56\51-1-1-553h56\5553h56\5553h56\51-1-1-|

::solo:: which I can't figure out......

D|--------------------------------------|
A|--------------------------------------|
F|--------------------------------------|
C|-5--9--3--10--5--9--3--10h11-10h11-10-|
G|-5--9--3--10--5--9--3--10h11-10h11-10-|
C|-5--9--3--10--5--9--3--10h11-10h11-10-|(same strumming pattern as before)

D|--------------------------|
A|--------------------------|
F|--------------------------|
C|-5--9--3--10--5--9--3--10-|
G|-5--9--3--10--5--9--3--10-|
C|-5--9--3--10--5--9--3--10-|

D|-------------------------------|
A|-------------------------------|
F|-------------------------------|
C|-775h78\7775h78\7775h78\71-1-1-|
G|-775h78\7775h78\7775h78\71-1-1-|
C|-775h78\7775h78\7775h78\71-1-1-|x4

2. Where Would You Rather Be?

::feedback::

D|-------------------------------|
A|-------------------------------|
F|----3-3p0---0-3-3p0------------|
C|-2--------2--------3p2p0-------|
G|-2--------2--------------------|
C|-2--------2----------------5-3-|x3

D|------------------|
A|------------------|
F|---3-3p0---0-3-3~-|
C|-2-------2-----2~-|
G|-2-------2--------|
C|-2-------2--------|

D|-----------------------|
A|-----------------------|
F|-----------------------|
C|-2----22-2--0-3p2p0----|
G|-2----22-2-------------|
C|-2----22-2---------5-3-|x3

D|----------|
A|----------|
F|----------|
C|-2---22-2-|
G|-2---22-2-|
C|-2---22-2-|

D|-------------------------------|
A|-------------------------------|
F|----3-3p0---0-3-3p0------------|
C|-2--------2--------3p2p0-------|
G|-2--------2--------------------|
C|-2--------2----------------5-3-|x4

D|----------|
A|----------|
F|----------|
C|-8-8-8--\-|
G|-8-8-8--\-|
C|-8-8-8--\-|

D|--------------------|
A|--------------------|
F|-4-447-777-77-77-7\-|
C|-2-225-557-77-77-7\-|
G|-2-225-555-55-55-5\-|
C|-2-225-550-00-00-0--|x4

D|-------------------------------|
A|-------------------------------|
F|----3-3p0---0-3-3p0------------|
C|-2--------2--------3p2p0-------|
G|-2--------2--------------------|
C|-2--------2----------------5-3-|

D|------------------|
A|------------------|
F|---3-3p0---0-3-3~-|
C|-2-------2-----2~-|
G|-2-------2--------|
C|-2-------2--------|

D|-------------------------------|
A|-------------------------------|
F|----3-3p0---0-3-3p0------------|
C|-2--------2--------3p2p0-------|
G|-2--------2--------------------|
C|-2--------2----------------5-3-|

D|------------------|
A|------------------|
F|---3-3p0---0-3-0~-|
C|-2-------2--------|
G|-2-------2--------|
C|-2-------2--------| (muting the strings between the played notes is good too)

D|-----------------------|
A|-----------------------|
F|-----------------------|
C|-2----22-2--0-3p2p0----|
G|-2----22-2-------------|
C|-2----22-2---------5-3-|x3

D|------------------|
A|------------------|
F|------------------|
C|-2----22--8-8-8-\-|
G|-2----22--8-8-8-\-|
C|-2----22--8-8-8-\-|

D|--------------------|
A|--------------------|
F|-4-447-777-77-77-7\-|
C|-2-225-557-77-77-7\-|
G|-2-225-555-55-55-5\-|
C|-2-225-550-00-00-0--|x4

D|---------|
A|---------|
F|---3-33~-|
C|-2----2~-|
G|-2-------|
C|-2-------|

D|---------|
A|---------|
F|---3-30~-|
C|-2----2~-|
G|-2-------|
C|-2-------|

D|-----------------------|
A|-----------------------|
F|-----------------------|
C|-208080208080-3p2p0----|
G|-20808020808-----------|
C|-20808020808-------5-3-|x4

D|------------------|
A|------------------|
F|------------------|
C|-8-8-8-8-8-8-8-8\-|
G|-8-8-8-8-8-8-8-8\-|
C|-8-8-8-8-8-8-8-8\-|

D|--------------------|
A|--------------------|
F|-4~---7~---7~-------|
C|-2~---5~---7~-------|
G|-2~---5~---5~-------|
C|-2~---5~---0~-------|x2

D|--------------------|
A|--------------------|
F|-4-447-777-77-77-7\-|
C|-2-225-557-77-77-7\-|
G|-2-225-555-55-55-5\-|
C|-2-225-550-00-00-0--|x2

D|--------------------|
A|--------------------|
F|-4-447-777-77-77-7\-|
C|-2-225-557-77-77-7\-|
G|-2-225-555-55-55-5\-|
C|-2-225-550-00-00-0--|x2 (let ring)

D|-----------------------|
A|-----------------------|
F|-----------------------|
C|-208080208080-3p2p0----|
G|-20808020808-----------|
C|-20808020808-------5-3-|x4

D|------------------------|
A|------------------------|
F|------------------------|
C|-2-X-XX-22-2-0-3p2p0----|
G|-2-X-XX-22-2------------|
C|-2-X-XX-22-2--------5-3-|x3

D|----------------|
A|----------------|
F|----3-3p0---0-3-|
C|-2--------2-----|
G|-2--------2-----|
C|-2--------2-----| ::feedback::

3. Last Weeks Genius

Tuning:Drop D


Intro/Verse:

E----------------------------------------------------------------------------|
B----------------------------------------------------------------------------|
G-55555555/8888\6666-55555555/8888\6666-33333333/8888\6666\555555555555/6666-|
D-55555555/8888\6666-55555555/8888\6666-33333333/8888\6666\555555555555/6666-|
A-33333333/6666\4444-33333333/6666\4444-11111111/6666\4444\333333333333/4444-|
D----------------------------------------------------------------------------|
(up until 10 seconds is done with a muffled mask over the guitar)
Repeated 2X


Chorus:

E----------------------------------------------------------------------|
B----------------------------------------------------------------------|
G-55555555-----------------------------55555555------------------------|
D-55555555-33333333-11111111-88888888--55555555-33333333-1-1-8-8888888-|
A-33333333-33333333-11111111-88888888--33333333-33333333-1-1-8-8888888-|
D----------33333333-11111111-88888888-----------33333333-1-1-8-8888888-|
Repeated 2X


Verse 2:

E-----------------------------|
B-----------------------------|
G-5---8-6-5---8-6-3---8-6-5---|
D-5---x-x-5---x-x-3---x-x-5---|
A-3---6-4-3---6-4-1---6-4-3---|
D-----------------------------|

E----------------------------------------------------------------------|
B----------------------------------------------------------------------|
G-1212121212121212/15151515\13131313-1212121212121212/15151515\13131313|
D-xxxxxxxxxxxxxxxx/xxxxxxxx\xxxxxxxx-xxxxxxxxxxxxxxxx/xxxxxxxx\xxxxxxxx|
A-1010101010101010/13131313\11111111-1010101010101010/13131313\11111111|
D----------------------------------------------------------------------|

-----------------------------------------------------------------------|
-----------------------------------------------------------------------|
1010101010101010/15151515\13131313-1212121212121212/15151515\13131313--|
xxxxxxxxxxxxxxxx/xxxxxxxx\xxxxxxxx-xxxxxxxxxxxxxxxx/xxxxxxxx\xxxxxxxx--|
8888888888888888/12121212\11111111-1010101010101010/13131313\11111111--|
-----------------------------------------------------------------------|


Bridge: (THE 'I HATE MYSELF!' BIT)

E------------------------------------------------------|  JUST STRUM THIS AS
B------------------------------------------------------|  FAST AS POSSIBLE AND
G-5555555555555555-5555555555555555-3333333333333333---|  SLOWLY BEND THE G
D-xxxxxxxxxxxxxxxx-xxxxxxxxxxxxxxxx-xxxxxxxxxxxxxxxx |  UPWARDS.(^)
A-3333333333333333-3333333333333333-1111111111111111-|
D----------------------------------------------------|


Song Structure:

Intro/Verse
Verse
Chorus
Verse 2
Bridge
Chorus

4. Junk

Tuning EADBGE

/\- slide up and down


-------------|
-------------|
-------------|
-------------|
-2-5-2-5/8\7-|
-0-3-0-3/6\5-|


-------------------------------------------------------|
-------------------------------------------------------|
-------------------------------------------------------|
-------------------------------------------------------|
-5-5-5-8-8-8-8-7-7-7-7-----5-5-5-8-8-8-8-7-7-7-7-8-7-5-|
-3-3-3-6-6-6-6-5-5-5-5-----3-3-3-6-6-6-6-5-5-5-5-6-5-3-|

-----------------------------|
-----------------------------|
-----------------------------|
-----------------------------|
-5-5-5-5-5-5-5-4-4-4-4-4-4-4-|
-3-3-3-3-3-3-3-2-2-2-2-2-2-2-|

--------------|
--------------|
--------------|
---5----7/8\7-|
---3----5/6\5-|
-0---0--------|


-----------------------------------------------------|
-----------------------------------------------------|
-----------------------------------------------------|
-----------------------------------------------------|
-9-2--4--4-6-6-4-4-7-7-2-4-6-4-4-7-6-4-6-2-4-2-4-5-2-|
-7-0--2--2-4-4-2-2-5-5-0-2/4-2-2-5-4-2-4-0-2-0-2-3-0-|

5. Roll Over

Tuning: Drop C


Intro
D|------------------------------|
A|------------------------------|
F|------------------------------|
C|------------------------[x4]--|
G|------------------------------|
C|--7^-9-999--7^-99-9999--------|


Verse
D|------------------------------------------------------------------------|
A|------------------------------------------------------------------------|
F|------------------------------------------------------------------------|
C|---------------------------------------------12-12-12-12-7-7-7-7-7-7-7--|
G|------------------------------------------------------------------------|
C|--7^-9-999--7^-99-9999--7^-9-999—7^-99-9999--12-12-12-12-7-7-7-7-7-7-7--|

D|------------------------------||-------------------------------------------------|
A|------------------------------||-------------------------------------------------|
F|------------------------------||-------------------------------------------------|
C|------------------------[x2]--||--12-12-12-12-7-7-7-7-7-7-7--7-9-999--7-99-9999--|
G|------------------------------||-----------------------------7-9-999--7-99-9999--|
C|--7^-9-999--7^-99-9999--------||--12-12-12-12-7-7-7-7-7-7-7--7-9-999--7-99-9999--|


Pre-Chorus
D|----------------------------------------------------------|
A|----------------------------------------------------------|
F|----------------------------------------------------------|
C|--4-4-4-4-7-7-7-7------------------------4-4-4-4-7-7-7-7--|
G|--4-4-4-4-7-7-7-7------------------------4-4-4-4-7-7-7-7--|
C|--4-4-4-4-7-7-7-7--7^-9-999--7^-99-9999--4-4-4-4-7-7-7-7--|


Chorus
D|--------------------------|
A|--------------------[x4]--|
F|--------------------------|
C|--9-9-7-7-12-12-7-7—------|
G|--9-9-7-7-12-12-7-7-------|
C|--9-9-7-7-12-12-7-7-------|


Bridge/Solo
D|---------------------------------------------------------------------------------|
A|---------------------------------------------------------------------------------|
F|------------------------------7777777777777777-10101010101010101010101010101010--|
C|------------------------------9999999999999999-12121212121212121212121212121212--|
G|---------------------------------------------------------------------------------|
C|--5-5-5-5-5-5-5-5-4-4-4-4-4v-----------------------------------------------------|
Slowly bend up '7' & '10'.

D|-----------------------------------------------------------------|
A|-----------------------------------------------------------------|
F|--15-15--10-10--9-10-11^12^11v/----------------------------------|
C|-----------------------------------------------------------------|
G|-------------------------------------------------------------7~--|
C|-------------------------------------4444-7777-99999999-4444-7~--|

6. Preach

intro (with slide)
D|---------------------------------------------------------------------------------------------|
A|---------------------------------------------------------------------------------------------|
F|---------------------------------------------------------------------------------------------|
C|-0--0-0-2/3-0-2/3-0-2/3/12\0-0-0-2/3-0-2/3-0-2/3/12\0-0-0-2/3-0-2/3-0-2/3/12\0-0-0-2/3-0-2/3-|
G|-0--0-0-2/3-0-2/3-0-2/3/12\0-0-0-2/3-0-2/3-0-2/3/12\0-0-0-2/3-0-2/3-0-2/3/12\0-0-0-2/3-0-2/3-|
C|-0--0-0-2/3-0-2/3-0-2/3/12\0-0-0-2/3-0-2/3-0-2/3/12\0-0-0-2/3-0-2/3-0-2/3/12\0-0-0-2/3-0-2/3-|
Last note slide between 2nd and 3rd

The cast away your slide into the distance! lol *or don't; might break*

D|------------------------------|
A|------------------------------|
F|------------------------7-7-7-|
C|-0--0-0-2/3-0-2/3-0-2/3-------|
G|-0--0-0-2/3-0-2/3-0-2/3-5-5-5-|
C|-0--0-0-2/3-0-2/3-0-2/3-------|x3


D|--------------------------|
A|--------------------------|
F|--------------------------|
C|-0--0-0-2/3-0-2/3-0-2/3-0-|
G|--------------------------|
C|--------------------------|
Let the last note ring into the verse

Bridge

D|--------------------------------|
A|--------------------------------|
F|-12--12--12-12-12-7--7-7--7-7-7-|
C|-10--10--10-10-10-5--5-5--5-5-5-|
G|-10--10--10-10-10-5--5-5--5-5-5-|
C|-10--10--10-10-10-5--5-5--5-5-5-|


D|------------------------------|
A|------------------------------|
F|------------------------7-7-7-|
C|-0--0-0-2/3-0-2/3-0-2/3-------|
G|-0--0-0-2/3-0-2/3-0-2/3-5-5-5-|
C|-0--0-0-2/3-0-2/3-0-2/3-------|

D|--------------------------------|
A|--------------------------------|
F|-12--12--12-12-12-7--7-7--7-7-7-|
C|-10--10--10-10-10-5--5-5--5-5-5-|
G|-10--10--10-10-10-5--5-5--5-5-5-|
C|-10--10--10-10-10-5--5-5--5-5-5-|


D|--------------------------|
A|--------------------------|
F|--------------------------|
C|-0--0-0-2/3-0-2/3-0-2/3-0-|
G|--------------------------|
C|--------------------------|

D|--------------------------------|
A|--------------------------------|
F|-12--12--12-12-12-7--7-7--7-7-7-|
C|-10--10--10-10-10-5--5-5--5-5-5-|
G|-10--10--10-10-10-5--5-5--5-5-5-|
C|-10--10--10-10-10-5--5-5--5-5-5-|


D|------------------------------|
A|------------------------------|
F|------------------------7-7-7-|
C|-0--0-0-2/3-0-2/3-0-2/3-------|
G|-0--0-0-2/3-0-2/3-0-2/3-5-5-5-|
C|-0--0-0-2/3-0-2/3-0-2/3-------|


D|-------------------------------|
A|-------------------------------|
F|-12--12-12-12-12-7--7-7--7-7-7-|
C|-10--10-10-10-10-5--5-5--5-5-5-|
G|-10--10-10-10-10-5--5-5--5-5-5-|
C|-10--10-10-10-10-5--5-5--5-5-5-|

Chorus

D|-----------------------------|
A|-----------------------------|
F|-5--5-5-10-10105--5-5-7--7-7-|
C|-0--0-0-8--8-8-3--3-3-5--5-5-|
G|-0--0-0-8--8-8-3--3-3-5--5-5-|
C|-0--0-0-8--8-8-3--3-3-5--5-5-|x3

D|------------------|
A|------------------|
F|-10-1010101010109-|
C|-8--8-8-8-8-8-8-7-|
G|-8--8-8-8-8-8-8-7-|
C|-8--8-8-8-8-8-8-7-|

7. No Hoper Boy

Main Riff
D|------------------------|
A|------------------------|
F|----------------0-2h3p0-|
C|-2--4-(0)-2--4----------|
G|------------------------|
C|------------------------|

(I can see you)
D|-------------------------------------------------------------------------------------------------|
A|-------------------------------------------------------------------------------------------------|
F|------------------------------------------------1111111111111111111111111111111111111111111111111|
C|-4-4-4-4-4-4-4-4-4-4-4-4-4-4-4-4-4-4-4-4-4-4-4-4-------------------------------------------------|
G|-4-4-4-4-4-4-4-4-4-4-4-4-4-4-4-4-4-4-4-4-4-4-4-4-9-9-9-9-9-9-9-9-9-9-9-9-9-9-9-9-9-9-9-9-9-9-9-9-|
C|-4-4-4-4-4-4-4-4-4-4-4-4-4-4-4-4-4-4-4-4-4-4-4-4-------------------------------------------------|

Bridge
D|----------------------------------------------------|
A|----------------------------------------------------|
F|-7--7--4--4-10-10109-9-9-97--7--4--4-10-10109-9-9-9-|
C|-5--5--2--2--8--8-87-7-7-75--5--2--2--8--8-87-7-7-7-|
G|-5--5--2--2--8--8-87-7-7-75--5--2--2--8--8-87-7-7-7-|
C|-5--5--2--2--8--8-87-7-7-75--5--2--2--8--8-87-7-7-7-|

Chorus
D|---------------------------------------------------------------------|
A|-----------10----------3------------------------3--------------------|
F|--------------11-----4---4--------------------4---4------------------|
C|-5--5-55-9-------9-2------5-8-8877775-55-5552------2-8-8-8-8-7-77-75-|
G|-5--5-55-9---------2--------8-8877775-55-5552--------8-8-8-8-7-77-75-|
C|-5--5-55-9---------2--------8-8877775-55-5552--------8-8-8-8-7-77-75-|

8. Your Favourite Client

Tuning:CGCFAD

(Main Riff)
D|-----------------------------------------------------------------|
A|-----------------------------------------------------------------|
F|-----------------------------------------------------------------|
C|-----------------------------------------------------------------|
G|-0-0-5-3-0-6-6-6-0-0-5-3-0-6-6-6-0-0-5-3-0-6-6-6-0-0-5-3-0-6-6-6-|
C|-----------------------------------------------------------------|

Don't push me; I just want a fucking answer
D|---------------------------------|
A|---------------------------------|
F|-6-6-6-6-6-6-6-6-7-7-7-7-7-7-7-7-|
C|-4-4-4-4-4-4-4-4-5-5-5-5-5-5-6-6-|
G|-4-4-4-4-4-4-4-4-5-5-5-5-5-5-6-6-|
C|-4-4-4-4-4-4-4-4-5-5-5-5-5-5-6-6-|

I get so lonely I could die
D|-------------------------------|
A|-------------------------------|
F|-7---7---7---7---8---8---8---5-|
C|-7---7---7---7---8---8---8---5-|
G|-5---5---5---5---6---6---6---3-|
C|---------------------------0---|

Then I watch you touch yourself and think of someone else
D|-----------------------------------------------------------------|
A|-----------------------------------------------------------------|
F|-7-7-7-7-7-7-7-7-7-7-7-7-7-7-7-7-8-8-8-8-8-8-8-8-8-8-8-8-8-8-8-8-|
C|-7-7-7-7-7-7-7-7-7-7-7-7-7-7-7-7-8-8-8-8-8-8-8-8-8-8-8-8-8-8-8-8-|
G|-5-5-5-5-5-5-5-5-5-5-5-5-5-5-5-5-6-6-6-6-6-6-6-6-6-6-6-6-6-6-6-6-|
C|-----------------------------------------------------------------|

(Chorus)
D|----------------------------------|
A|----------------------------------|
F|-9-9-9-9-9-7-7-7-7-7-7-7-10101010-|
C|-9-9-9-9-9-7-7-7-5-5-5-5-8-8-8-8--|
G|-7-7-7-7-7-5-5-5-5-5-5-5-8-8-8-8--|
C|-----------------5-5-5-5-8-8-8-8--|

Then you'll always be my whore (end of first chorus)
D|---------------------------------|
A|--(Palm mute and open out)-------|
F|---------------------------------|
C|-7-7-7-7-7-7-7-7-7-7-7-7-7-7-7-7-|
G|-7-7-7-7-7-7-7-7-7-7-7-7-7-7-7-7-|
C|-7-7-7-7-7-7-7-7-7-7-7-7-7-7-7-7-|

You'll always be adored
D|---------------------------------|
A|---------------------------------|
F|---------------------------------|
C|-9-------7---9---7---------------|
G|-7-------7---7---5---------------|
C|-----------------0---------------|

(I'm no good at tabbing solos so sorry)

(Outro part one)
D|-----------------|
A|-----------------|
F|----57-5---8-8-8-|
C|----57-5---8-8-8-|
G|-0--35-3-0-6-6-6-|
C|-----------------|

(Outro part two - just guitar)
D|-----------------|
A|-----------------|
F|-----------------|
C|-----------------|
G|-0-3-5-3-0-6-6-6-|
C|-----------------|

9. Nihilism

SONG:   "NIHILISM"
ALBUM:  "FOOD"
TUNING: C-G-C-F-A-D (DROPPED C)

INTRO: (ADD ALOT OF FUZZ ON YOUR AMP FOR RIGHT SOUND)

F-----------------------------------|
A-----------------------------------|
D-------7---5-----------------------|   (THIS RIFF TIMES 3)
C-----7---7---7---7---5-------------|
G-------------------------8---7---8-|
C--0-(LET RING)---------------------|

F----------------------------------|
A----------------------------------|
D------7---5-(BEND)----------------|
C----7---7-----------12(SLIDE)-----|
G--------------------12(SLIDE)-----|
C--0-------------------------------|

F----------------------------------------|
A----------------------------------------|
D--7---------7---------5/8-8-8-8(BEND)---|
C--7---------7---------7/8-8-8-8---------|   (PLAY 4 TIMES)
G--5--0-0-0--5--0-0-0--5/6-6-6-6---------|
C-----0-0-0-----0-0-0--------------------|

VERSE: (MUTED NOTES SOUND PRETTY GOOD FOR THIS

F-----------------------------------------------|
A-----------------------------------------------|
D-----------------------------------------------|
C------12-----12------12------12------13--------|    (PLAY 8 TIMES)
G----12-----12------12------12------13--13------|
C--12-----12------12------12------13------------|
"WHO AM I TO SAY I HATE IT ALL?..."

CHORUS: (LOUD AS FUCK HEAVY AS FUCK)

F--------------------------------------------------------------------|
A--------------------------------------------------------------------|
D-7-7-7-7-7-7-7-7--3-3-3-3-3-3-3-3-------------------5-5-5-5-5-5-5-5-|
C-7-7-7-7-7-7-7-7--3-3-3-3-3-3-3-3--5-5-5-5-5-5-5-5--5-5-5-5-5-5-5-5-|
G-5-5-5-5-5-5-5-5--1-1-1-1-1-1-1-1--5-5-5-5-5-5-5-5--3-3-3-3-3-3-3-3-|
C-----------------------------------5-5-5-5-5-5-5-5------------------|
"MY DESIRE, MY DESIRE, I PLEAD NO WAR"

F-------------------------------------------------------------------|
A-------------------------------------------------------------------|
D-7-7-X-X-X--3-3-X-X-X-------------------5-5-5-5-5-5-5-5------------|
C-7-7-X-X-X--3-3-X-X-X--5-5-5-5-5-5-5-5--5-5-5-5-5-5-5-5------------|
G-5-5-X-X-X--1-1-X-X-X--5-5-5-5-5-5-5-5--3-3-3-3-3-3-3-3------------|
C-----------------------5-5-5-5-5-5-5-5-----------------------------|
"IS IT IMPORTANT, IS IT IMPORTANT OUR KIDS KNOW MORE?"

F--------------------------------------------------------------------|
A--------------------------------------------------------------------|
D-7-7-7-7-7-7-7-7--3-3-3-3-3-3-3-3-------------------5-5-5-5-5-5-5-5-|
C-7-7-7-7-7-7-7-7--3-3-3-3-3-3-3-3--5-5-5-5-5-5-5-5--5-5-5-5-5-5-5-5-|
G-5-5-5-5-5-5-5-5--1-1-1-1-1-1-1-1--5-5-5-5-5-5-5-5--3-3-3-3-3-3-3-3-|
C-----------------------------------5-5-5-5-5-5-5-5------------------|
"MY DESIRE, MY DESIRE, I'LL QUIT NO MORE"

F--------------------------------------------------------------|
A--------------------------------------------------------------|
D--------------------------------------------------------------|
C--8-8-8-8-8-8-8-8(SLIDE)10-10-10-10-10-10-10-10--0-(LET RING)-|
G--8-8-8-8-8-8-8-8(SLIDE)10-10-10-10-10-10-10-10--0-(LET RING)-|
C--8-8-8-8-8-8-8-8(SLIDE)10-10-10-10-10-10-10-10--0-(LET RING)-|
"BUT ITS ALL I KNOW"

F----------------------------------------|
A----------------------------------------|
D--7---------7---------5/8-8-8-8(BEND)---|
C--7---------7---------7/8-8-8-8---------|   (PLAY 4 TIMES)
G--5--0-0-0--5--0-0-0--5/6-6-6-6---------|
C-----0-0-0-----0-0-0--------------------|

VERSE: (MUTED NOTES SOUND PRETTY GOOD FOR THIS

F-----------------------------------------------|
A-----------------------------------------------|
D-----------------------------------------------|
C------12-----12------12------12------13--------|    (PLAY 8 TIMES)
G----12-----12------12------12------13--13------|
C--12-----12------12------12------13------------|
"WHO AM I TO SAY WHATS REALLY WRONG?"

CHORUS: (LOUD AS FUCK HEAVY AS FUCK)

F--------------------------------------------------------------------|
A--------------------------------------------------------------------|
D-7-7-7-7-7-7-7-7--3-3-3-3-3-3-3-3-------------------5-5-5-5-5-5-5-5-|
C-7-7-7-7-7-7-7-7--3-3-3-3-3-3-3-3--5-5-5-5-5-5-5-5--5-5-5-5-5-5-5-5-|
G-5-5-5-5-5-5-5-5--1-1-1-1-1-1-1-1--5-5-5-5-5-5-5-5--3-3-3-3-3-3-3-3-|
C-----------------------------------5-5-5-5-5-5-5-5------------------|
"MY DESIRE, MY DESIRE, I PLEAD NO WAR"

F-------------------------------------------------------------------|
A-------------------------------------------------------------------|
D-7-7-X-X-X--3-3-X-X-X-------------------5-5-5-5-5-5-5-5------------|
C-7-7-X-X-X--3-3-X-X-X--5-5-5-5-5-5-5-5--5-5-5-5-5-5-5-5------------|
G-5-5-X-X-X--1-1-X-X-X--5-5-5-5-5-5-5-5--3-3-3-3-3-3-3-3------------|
C-----------------------5-5-5-5-5-5-5-5-----------------------------|
"IS IT IMPORTANT, IS IT IMPORTANT OUR KIDS KNOW MORE?"

F--------------------------------------------------------------------|
A--------------------------------------------------------------------|
D-7-7-7-7-7-7-7-7--3-3-3-3-3-3-3-3-------------------5-5-5-5-5-5-5-5-|
C-7-7-7-7-7-7-7-7--3-3-3-3-3-3-3-3--5-5-5-5-5-5-5-5--5-5-5-5-5-5-5-5-|
G-5-5-5-5-5-5-5-5--1-1-1-1-1-1-1-1--5-5-5-5-5-5-5-5--3-3-3-3-3-3-3-3-|
C-----------------------------------5-5-5-5-5-5-5-5------------------|
"MY DESIRE, MY DESIRE, I'LL QUIT NO MORE"

F--------------------------------------------------------------|
A--------------------------------------------------------------|
D--------------------------------------------------------------|
C--8-8-8-8-8-8-8-8(SLIDE)10-10-10-10-10-10-10-10--0-(LET RING)-|
G--8-8-8-8-8-8-8-8(SLIDE)10-10-10-10-10-10-10-10--0-(LET RING)-|
C--8-8-8-8-8-8-8-8(SLIDE)10-10-10-10-10-10-10-10--0-(LET RING)-|
"BUT ITS ALL I KNOW"

F-----------------------------------|
A-----------------------------------|
D-------7---5-----------------------|   (THIS RIFF TIMES 4)
C-----7---7---7---7---5-------------|
G-------------------------8---7---8-|
C--0-(LET RING)---------------------|

F-------------------|
A-------------------|
D-------------------|
C--7--8-8-8-8-8-8---|   (THIS RIFF TIMES 4)
G--7--8-8-8-8-8-8---|
C--7--8-8-8-8-8-8---|

IN THE BRIEF PAUSE THERE ARE PICKSLIDES, SCRAPES, BEHIND THE NUT
PICKING AND GENERAL AMP NOISE.

SOLO/INTERLUDE

F--------------------------------------------|
A--------------------------------------------|
D--------------------------------------------|
C-----------------------------------13-------|
G---------------------------------13--13-----|
C--12-12--12-12--12-12--12-12--13------------|

F---------------------------------------------|
A---------------------------------------------|
D---------------------------------------------|
C---------------------------------------------|
G------------------------------11-12-11-------|(BEND)
C--12-12--12-12--12-12--12-12-----------------|

F--------------------------------------------|
A--------------------------------------------|
D--------------------------------------------|
C-----------------------------------13-------|
G---------------------------------13--13-----|
C--12-12--12-12--12-12--12-12--13------------|

F--------------------------------------------|
A--------------------------------------------|
D--------------------------------------------|
C------------------------------12(LET RING)--|
G------------------------------12(LET RING)--|
C--12-12--12-12--12-12--12-12--12(LET RING)--|

CHORUS: (LOUD AS FUCK HEAVY AS FUCK)

F--------------------------------------------------------------------|
A--------------------------------------------------------------------|
D-7-7-7-7-7-7-7-7--3-3-3-3-3-3-3-3-------------------5-5-5-5-5-5-5-5-|
C-7-7-7-7-7-7-7-7--3-3-3-3-3-3-3-3--5-5-5-5-5-5-5-5--5-5-5-5-5-5-5-5-|
G-5-5-5-5-5-5-5-5--1-1-1-1-1-1-1-1--5-5-5-5-5-5-5-5--3-3-3-3-3-3-3-3-|
C-----------------------------------5-5-5-5-5-5-5-5------------------|
"MY DESIRE, MY DESIRE, I PLEAD NO WAR"

F-------------------------------------------------------------------|
A-------------------------------------------------------------------|
D-7-7-X-X-X--3-3-X-X-X-------------------5-5-5-5-5-5-5-5------------|
C-7-7-X-X-X--3-3-X-X-X--5-5-5-5-5-5-5-5--5-5-5-5-5-5-5-5------------|
G-5-5-X-X-X--1-1-X-X-X--5-5-5-5-5-5-5-5--3-3-3-3-3-3-3-3------------|
C-----------------------5-5-5-5-5-5-5-5-----------------------------|
"IS IT IMPORTANT, IS IT IMPORTANT OUR KIDS KNOW MORE?"

F--------------------------------------------------------------------|
A--------------------------------------------------------------------|
D-7-7-7-7-7-7-7-7--3-3-3-3-3-3-3-3-------------------5-5-5-5-5-5-5-5-|
C-7-7-7-7-7-7-7-7--3-3-3-3-3-3-3-3--5-5-5-5-5-5-5-5--5-5-5-5-5-5-5-5-|
G-5-5-5-5-5-5-5-5--1-1-1-1-1-1-1-1--5-5-5-5-5-5-5-5--3-3-3-3-3-3-3-3-|
C-----------------------------------5-5-5-5-5-5-5-5------------------|
"MY DESIRE, MY DESIRE, I'LL QUIT NO MORE"

F--------------------------------------------------------------|
A--------------------------------------------------------------|
D--------------------------------------------------------------|
C--8-8-8-8-8-8-8-8(SLIDE)10-10-10-10-10-10-10-10--0-(LET RING)-|
G--8-8-8-8-8-8-8-8(SLIDE)10-10-10-10-10-10-10-10--0-(LET RING)-|
C--8-8-8-8-8-8-8-8(SLIDE)10-10-10-10-10-10-10-10--0-(LET RING)-|
"BUT ITS ALL I KNOW"

10. All Eyes On Me

Tuning: CGCFAD

(Main riff)
D|-----xx----xx----xx------|
A|-----xx----xx----xx------|
F|-7777xx7777xx7777xx6-6-6-|
G|-----xx----xx----xx4-4-4-|
G|-5555xx5555xx5555xx4-4-4-|
C|-----xx----xx----xx4-4-4-|

(verse)
D|-------------------------|
A|-------------------------|
F|-------------------7-7-7-|
G|-------------------------|
G|-5-555-5-5-5-5-555-5-5-5-|
C|-0-000-0-0-0-0-000-------|
   [....palm mute...]

Won't let me......

(.....down)
D|-------------------------|
A|-------------------------|
F|-------7-----7-----6-6-6-|
G|-----7---7-----7---4-4-4-|
G|---5-------5-----5-4-4-4-|
C|-0-----------------4-4-4-|

(shadows keep hanging over me like a clown of defeat)
D|-----------------xx----xx-------------------------|
A|-----------------xx----xx-------------------------|
F|-9-9-9-7-7-7-7777xx7777xx6-6-6-7-7-7-777777777777-|
G|-7-7-7-5-5-5-----xx----xx4-4-4-5-5-5--------------|
G|-7-7-7-5-5-5-5555xx5555xx4-4-4-5-5-5-555555555555-|
C|-7-7-7-5-5-5-----xx----xx4-4-4-5-5-5--------------|
                                       [....bend....]

(chorus)
D|---------------|
A|---------------|
F|-7-77-97-7-9-9-|
G|-7-77-75-5-7-7-|
G|-5-57-75-5-7-7-|
C|-0-07-75-5-7-7-|

(all eyes on me)
D|---------------|
A|---------------|
F|-------7-----7-|
G|---------7-----|
G|----5------5---|
C|-0-------------|

(all eyes on meeeeeee)
D|---------|
A|---------|
F|-6-6-6-7-|
G|-4-4-4-5-|
G|-4-4-4-5-|
C|-4-4-4-5-|

(Final bar)
D|-------------------------|
A|-------------------------|
F|-7777xx7777xx7777xx6-6-7-|
G|-----xx----xx----xx4-4-5-|
G|-5555xx5555xx5555xx4-4-5-|
C|-----xx----xx----xx4-4-5-|

11. Anaemia

Intro/Verse:

Starts with some meaty pickslides/pickscrapes and good ol' feedback!
Then the main riff of the song! (and a catchy one at that!)

E----------------------------|
B----------------------------|
G----------------------------|
D-8-1010810-10810810\\\xxxx--|
A-8-1010810-10810810\\\xxxx--|
D-8-1010810-10810810\\\xxxx--|
Repeated 8X

Bridge:
Don't let it go, makes you real, made of stone...

E----------------------------|
B----------------------------|
G----------------------------|
D-6666/10101010\88888888-----|
A-6666/10101010\88888888-----|
D-6666/10101010\88888888-----|
Repeated 2X

Then Intro/Verse again but this time softer.

Then Bridge again.

Chorus:
And I don't wish for a life of open doors...

E-------------------------------------------------|
B-------------------------------------------------|
G-------------------------------------------------|
D-1010101010101010-66666666-88888888-6666\5555----|
A-1010101010101010-66666666-88888888-6666\5555----|
D-1010101010101010-66666666-88888888-6666\5555----|

Repeat 3X and and the fourth time end ike this:

E-------------------------------------------------|
B-------------------------------------------------|
G-------------------------------------------------|
D-1010101010101010-66666666-88888888-66666666-----|
A-1010101010101010-66666666-88888888-66666666-----|
D-1010101010101010-66666666-88888888-66666666-----|

Song Structure:
Intro/Verse
Bridge
Verse(but softer)
Bridge
Chorus
Verse(Drum and Bass)
Bridge
Chorus
'Giving it up!' bit
Solo
Slow Main Riff Outro to fade out
Добавлено: 12.08.2013
Другие материалы по этой песне:
  • Аккорды и текст

Страница создана 12.08.2013
http://primanota.ru/zico-chain/food-chords.htm
Привет, Гость.
Предлагаем пройти революционный курс по гитаре.
Подарок от PrimaNota.Ru, забирай!