PrimaNota.ru - самый крупный в мире бесплатный архив песенных текстов, аккордов, табулатур и нот


Zia Quizon - Ako Na Lang Ver 4 - таба, видео

Регистрация Запомнить меня
Войти через:  Facebook Google Twitter Vk Yandex Mail.ru

Zia Quizon - Ako Na Lang Ver 4 - таба, видео

Печатать
Просмотров: 63
-------------------------------------------------------------------------------
                           Ako nlang sana - Zia Quizon
-------------------------------------------------------------------------------
Tabbed by:Eirol Martin
E-mail:https://www.facebook.com/solidben10

U can add vibrato if u want
Tuning:STANDARD

e|------10/11-11-11--9-------------------------------------------------------------|
B|--9-------------------9--11/12--9--12-12/14-14-13----------------------------------------|
G|---------------------------------------------------------------------------|
D|---------------------------------------------------------------------------|
A|---------------------------------------------------------------------------|
E|---------------------------------------------------------------------------|

e|----10/11-11-11-12-14--14/16-12-----------------------19-18-17---------------------------------------
B|-9-----------------------------12--9-12-12h14-14/17----------------------------------------|
G|---------------------------------------------------------------------------|
D|---------------------------------------------------------------------------|
A|---------------------------------------------------------------------------|
E|---------------------------------------------------------------------------|

Intro chords: E7-A7-Am7
Verse: E7-A7-Am7
Refrain use barr: G#m-A-Am-G#m-(G#m-Gm-F#m-E)fast switching here
                  G#m-A-Am-G#m-Am       
Chorus: E7-A7-Am7

Naghahanap ka ng maaya
Pagkat sadyang wala kang magawa
Nagsasayang ng bawat oras sa wala
Hala

Na search mo nang lahat sa internet
Naubos na ang load sa kakatext
Naghihintay ka lang ng may makukulit
Ulit

What are you waiting for
Call my number
Knock on my door
Nandito lang ako
How I wish you'd let me know

Kung sinu-sino pang tinatawagan mo
Nandito lang naman ako
At kung saan-saan ka pa naghahanap
Nandito lang naman ako
Kung sinu-sino pang tinatawagan mo
Nandito lang naman ako
At kung saan-saan ka pa naghahanap
Nandito lang naman ako

Ako na lang sana
Tayo na lang dal'wa
Sana nalaman mo pala
Ako na lang sana

Ako na lang kung pwede lang I wish
Ako na lang ako na lang I guess
Ako na lang ang paborito mong mamiss
Oh yes

Hindi ko babasagin ang 'yong trip
Whatever man ang gusto mong gimmick
Sabay sa jamming at ka-duet mo sa gig
Astig

What are you waiting for
Call my number
Knock on my door
Nandito lang ako
How I wish you'd let me know

Kung sinu-sino pang tinatawagan mo
Nandito lang naman ako
At kung saan-saan ka pa naghahanap
Nandito lang naman ako
Kung sinu-sino pang tinatawagan mo
Nandito lang naman ako
At kung saan-saan ka pa naghahanap
Nandito lang naman ako
Ako nalang....
ako nalang...
ako nalang...
ako nalang...
Kung sinu-sino pang tinatawagan mo
Nandito lang naman ako
At kung saan-saan ka pa naghahanap
Nandito lang naman ako
Kung sinu-sino pang tinatawagan mo
Nandito lang naman ako
At kung saan-saan ka pa naghahanap
Nandito lang naman ako
Ako nalang sana...


Добавлено: 30.12.2015
Другие материалы по этой песне:
  • Аккорды и текст

Страница создана 30.12.2015
http://primanota.ru/zia-quizon/ako-na-lang-ver-4-chords.htm
Привет, Гость.
Предлагаем пройти революционный курс по гитаре.
Подарок от PrimaNota.Ru, забирай!