PrimaNota.ru - самый крупный в мире бесплатный архив песенных текстов, аккордов, табулатур и нот


Zhiend - Fallin - таба, видео

Регистрация Запомнить меня
Войти через:  Facebook Google Twitter Vk Yandex Mail.ru

Zhiend - Fallin - таба, видео

Печатать
Просмотров: 712
-------------------------------------------------------------------------------
                             Fallin' - ZHIEND
-------------------------------------------------------------------------------
Tabbed by: Ewaen Isoken
E-mail: EwaenIsoken@gmail.com

Tuning: Standard

E|----------------2---------------------2--------------|
B|---------0h2---------2---------0h2---------2----0----|
G|-----------------------------------------------------|
D|----2---------------------2--------------------------|
A|-----------------------------------------------------|
E|-----------------------------------------------------|

Stave 2:

E|----------------------------------|
B|-------------------2--------------|
G|--------------3---------3---------|
D|---------4-------------------4----|
A|----------------------------------|
E|----2-----------------------------|

Stave 3:

E|----------------------------------|
B|--------------0-------------------|
G|------------------------3---------|
D|---------4---------4---------4----|
A|----------------------------------|
E|----4-----------------------------|

Stave 4:

E|----------------2---------------------2--------------|
B|---------0h2---------2---------0h2---------2----0----|
G|-----------------------------------------------------|
D|----2---------------------2--------------------------|
A|-----------------------------------------------------|
E|-----------------------------------------------------|

Stave 5:

E|----------------------------------|
B|-------------------2--------------|
G|--------------3---------3---------|
D|---------4-------------------4----|
A|----------------------------------|
E|----2-----------------------------|

Stave 6:

E|----2-----------2----|
B|----4----------------|
G|----4----3\4---------|
D|----4----------------|
A|----2----1\2---------|
E|---------------------|

Stave 7:

E|----------------2---------------------2--------------|
B|---------0h2---------2---------0h2---------2----0----|
G|-----------------------------------------------------|
D|----2---------------------2--------------------------|
A|-----------------------------------------------------|
E|-----------------------------------------------------|

Stave 8:

E|----------------------------------|
B|-------------------2--------------|
G|--------------3---------3---------|
D|---------4-------------------4----|
A|----------------------------------|
E|----2-----------------------------|

Stave 9:

E|----------------------------------|
B|--------------0-------------------|
G|------------------------3---------|
D|---------4---------4---------4----|
A|----------------------------------|
E|----4-----------------------------|

Stave 10:

E|----------------2---------------------4p2---------|
B|---------0h2---------2---------0h2-----------2----|
G|--------------------------------------------------|
D|----2---------------------2-----------------------|
A|--------------------------------------------------|
E|--------------------------------------------------|

Stave 11:

E|---------------------------------------|
B|--------------2-------------------0----|
G|------------------------3---------4----|
D|---------4---------4---------4----4----|
A|----------------------------------2----|
E|----2----------------------------------|

************************************

| /   slide up
| \   slide down
| h   hammer-on
| p   pull-off
| ~   vibrato
| +   harmonic
| x   Mute note
| b   Bend
| pb  Pre-bend
| br  Bend release
| pbr Pre-bend release
| brb Bend release bend

************************************
Добавлено: 27.10.2015
Другие материалы по этой песне:
  • Аккорды и текст

Страница создана 27.10.2015
http://primanota.ru/zhiend/fallin-chords.htm
Привет, Гость.
Предлагаем пройти революционный курс по гитаре.
Подарок от PrimaNota.Ru, забирай!