PrimaNota.ru - самый крупный в мире бесплатный архив песенных текстов, аккордов, табулатур и нот


Zezé Di Camargo & Luciano - No Puedo Negar - аккорды и текст, видео

Регистрация Запомнить меня
Войти через:  Facebook Google Twitter Vk Yandex Mail.ru

Zezé Di Camargo & Luciano - No Puedo Negar - аккорды и текст, видео

Печатать
Просмотров: 39
No Puedo Negar
Zezé Di Camargo & Luciano
INTRO: E B F#7 B F#7

e|-----4--2--4--2--4--2--4--2--4--2--4--7--7--
B|--------------------------------------------
G|--4-----------------------------------------
D|--------------------------------------------
A|--------------------------------------------
E|--------------------------------------------


e|----------------------------------9--7--9--7--9--11--9--12--11--7--
B|--4--2--4--2------------2------------------------------------------
G|--------------4---4--4-----4--3------------------------------------
D|-------------------------------------------------------------------
A|-------------------------------------------------------------------
E|-------------------------------------------------------------------

     B
No puedo negar que yo estoy loco por ti, atontado hasta morir
           F#7     C#m                C#m7        F#7
no puedo negar, no puedo negar que sin ti, yo viviría lleno
                          B   C#m7 - F#7
de melancolía no puedo negar.

     B
No puedo negar que te quiero hasta el final para el bien y
           B7          E
para el mal  no puedo negar.

   E                                B
Tu eres mi mujer amada eres mi alegría
                             C#m             F#7
la ilusión sacada de mi fantasía lo que yo soñé
             B  B7
para sobrevivir.
    E                                       B
Yo soy un hombre apasionado de alma transparente
                            C#m              F#7
algo alucinado, algo inconsecuente pero destinado
          B    B7
para ser feliz.

     E                                          B
Es amor, que nace conmigo y me ayuda a seguir así
                                  F#7         C#m            F#7
que quiere pensar solamente en ti y en mi que sabe instintivamente
               B B7
lo que debe hacer.
     E                                            B
Es amor, que vive con tu nombre puesto en mi corazón
                                   F#7       C#m            F#7
que sabe que vivir contigo es mi solución, y finalmente te elegido
         B     F#7
como mi mujer.

     B
No puedo negar que te quiero hasta el final...

**************************
* Jairo Espinoza Villena *
*  jairo_ev@  *
*    Chimbote - Perú     *
**************************
Добавлено: 24.03.2016
Другие материалы по этой песне:
  • Аккорды и текст

Страница создана 24.03.2016
http://primanota.ru/zeze-di-camargo-and-luciano/no-puedo-negar-chords.htm
Привет, Гость.
Предлагаем пройти революционный курс по гитаре.
Подарок от PrimaNota.Ru, забирай!