PrimaNota.ru - самый крупный в мире бесплатный архив песенных текстов, аккордов, табулатур и нот


Zerosystem - Honking Antelope - бас-таба, видео

Регистрация Запомнить меня
Войти через:  Facebook Google Twitter Vk Yandex Mail.ru

Zerosystem - Honking Antelope - бас-таба, видео

Печатать
Просмотров: 76
Уроки эстрадного вокала в Санкт-Петербурге
**********************************************
HONKING ANTELOPE (ACOUSTIC COVER)
**********************************************

-tabbed by "ZERO83" - PLEASE RATE!!! =)
-Tuning: CGDGC
-live-performance: www.youtube.com/watch?v=52DKqijuf6E


VERSE
 -----15----------------15------15------- -----15----------------15---------------|
 -------17----------------17------13----- -------17----------------17-------------|
 ---------17----------------17------13--- ---------17----------------17-----------|
 --------------13------------------------ --------------13------------------------|
 -0-----------------0-------------------- -0-----------------0--------------------|

REFRAIN A
 ------------------------------------------|
 -13---10-8-5----6-5----13---10-8-5--6---5-|
 -13---10-8-5----6-5----13---10-8-5--6---5-|
 -13---10-8-5----6-5----13---10-8-5--6---5-|
 ------------------------------------------|

VERSE

REFRAIN B
 ---------------------------------|
 -13---10-8-5-----------13---10-8-|
 -13---10-8-5-----------13---10-8-|
 -13---10-8-5---5-3-1-0-13---10-8-|
 ---------------------------------|

BRIDGE
 ----------------------------------------   ----------------------------|
 ----------------------------------------   --------------0------4------|
 ---------------------7-7---7---7---7-7--   -10-----------0------4------|
 -5-5---5---5---5-5---7-7---7---7---7-7--   -10-----------0------4------|
 ----------------------------------------   ----------------------------|

 -------------------------------------------|
 -8---7-0-5------------8---7-0-5------------|
 -8---7-0-5------------8---7-0-5------------|
 -8---7-0-5---5-7-8-10-8---7-0-5---5-7-8-10-|
 -------------------------------------------|

REFRAIN C
 ------------------------------------------ -------------------------------|
 -13--10-8-5-----------13--108-5----------- -13--10-8-5-----------13--10-8-|
 -13--10-8-5-----------13--108-5----------- -13--10-8-5-----------13--10-8-|
 -13--10-8-5---5-7-8-1013--108-5---5-7-8-10 -13--10-8-5---5-7-8-1013--10-8-|
 ------------------------------------------ -------------------------------|

BRIDGE
 ----------------------------------------   ----------------------------|
 ----------------------------------------   --------------0------4------|
 ---------------------7-7---7---7---7-7--   -10-----------0------4------|
 -5-5---5---5---5-5---7-7---7---7---7-7--   -10-----------0------4------|
 ----------------------------------------   ----------------------------|

 ----------------------------------------   ----------------------------------------|
 -8---7-0-5-----------8---7-0-5----------   -8---7-0-5-----------8---7-0-5----------|
 -8---7-0-5-----------8---7-0-5----------   -8---7-0-5-----------8---7-0-5----------|
 -8---7-0-5---5-7-8-108---7-0-5---5-3-1-0   -8---7-0-5---5-7-8-108---7-0-5----------|
 ----------------------------------------   ----------------------------------------|

ENDE
 -----15----------------15------15------- -----15-----------------------------------|
 -------17----------------17------13----- -------17---------------------------------|
 ---------17----------------17------13--- ---------17-------------------------------|
 --------------13------------------------ --------------13---10---8---5-------------|
 -0-----------------0-------------------- -0--------------------------0-------------|
Добавлено: 14.09.2013
Другие материалы по этой песне:
  • Аккорды и текст

Страница создана 14.09.2013
http://primanota.ru/zerosystem/honking-antelope-chords.htm
Привет, Гость.
Предлагаем пройти революционный курс по гитаре.
Подарок от PrimaNota.Ru, забирай!