PrimaNota.ru - самый крупный в мире бесплатный архив песенных текстов, аккордов, табулатур и нот


Zeromancer - Dr Online - аккорды и текст, бас-таба, видео

Регистрация Запомнить меня
Войти через:  Facebook Google Twitter Vk Yandex Mail.ru

Zeromancer - Dr Online - аккорды и текст, бас-таба, видео

Печатать
Просмотров: 236
Уроки эстрадного вокала в Санкт-Петербурге
Dr Online
Zeromancer
decided to transcribe this to Drop D for easier tuning ;)
listen to  the song for rhythm  and accents in the verses 


Chorus
E|-------------------------------------------------------------------------------|
B|-------------------------------------------------------------------------------|
G|-------------------------------------------------------------------------------|
D|-10-10-10-10-10-10-10-10-13-13-13-8-8-8-8-8-8-5-5-5-5-5-5-5-5-8-8-8-3-3-3-3-3-3|
A|-10-10-10-10-10-10-10-10-13-13-13-8-8-8-8-8-8-5-5-5-5-5-5-5-5-8-8-8-3-3-3-3-3-3|
D|-10-10-10-10-10-10-10-10-13-13-13-8-8-8-8-8-8-5-5-5-5-5-5-5-5-8-8-8-3-3-3-3-3-3|


Verse (x4)
E|----------------|
B|----------------|
G|----------------|
D|-5-5-5-5-5-5-5-5|
A|-5-5-5-5-5-5-5-5|
D|-5-5-5-5-5-5-5-5|
Добавлено: 24.09.2015
Другие материалы по этой песне:

Страница создана 27.06.2012
http://primanota.ru/zeromancer/dr-online-chords.htm
Привет, Гость.
Предлагаем пройти революционный курс по гитаре.
Подарок от PrimaNota.Ru, забирай!