PrimaNota.ru - самый крупный в мире бесплатный архив песенных текстов, аккордов, табулатур и нот


Zero Boys - Civilizations Dying - таба, бас-таба, видео

Регистрация Запомнить меня
Войти через:  Facebook Google Twitter Vk Yandex Mail.ru

Zero Boys - Civilizations Dying - таба, бас-таба, видео

Печатать
Просмотров: 143
Civilization's Dying

Intro
E----------------------------|
B----------------------------|
G---4444------4444-----------|
D---4444-5555-4444-5555------|
A---2222-5555-2222-5555------|
E--------333-------3333------|

Verse
E--------------------------------------------|---^^^^---------------|
B--------------------------------------------|---^^^^---------------|
G---4444------4444-------4444-------222222222|---7777---------------|
D---4444-5555-4444-5555--4444-5555--222222222|----------------------|
A---2222-5555-2222-5555--2222-5555--000000000|----------------------|
E--------3333------3333-------3333-----------|-(just before chorus)-|


Chorus
E-------------------|
B-------------------|
G----7---4-------2--|
D----7---4---5---2--|
A----5---2---5---0--|
E------------3------|

Solo
E-777777-999999-777777-999999-7777777-9999999--9-7--9-7--9-797979999999|
B-777777-777777-777777-777777-7777777-7777777--9-7--9-7--9-797979999999|
G---------------------------------------------------------------9999999|
D----------------------------------------------------------------------|
A----------------------------------------------------------------------|
E----------------------------------------------------------------------|
Добавлено: 07.04.2012
Другие материалы по этой песне:
  • Аккорды и текст

Страница создана 07.04.2012
http://primanota.ru/zero-boys/civilizations-dying-chords.htm
Привет, Гость.
Предлагаем пройти революционный курс по гитаре.
Подарок от PrimaNota.Ru, забирай!