PrimaNota.ru - самый крупный в мире бесплатный архив песенных текстов, аккордов, табулатур и нот


Zero Balas - Para Estar A Tu Lado - таба, видео

Регистрация Запомнить меня
Войти через:  Facebook Google Twitter Vk Yandex Mail.ru

Zero Balas - Para Estar A Tu Lado - таба, видео

Печатать
Просмотров: 96
WenO ztA kNZioN cuenta Un PoKo Mi vIdA… y Va dedica pARa Una PeRzONA MuY Zpezial!!!!
eZTá 99.9% KoRReKtA... Y eZTa WEnAZa Zi lA ZaeN tOKaR ...
..eZTa Es Mi pRimERa kNzION... pRoNtO HaBrA Mas!!!...
...viVa El RoCK PunK NaZionAl!!!!!!!
DuZfRuTnLo!!!!

INTRO
    C#5       G#5            F#5           G#5   
|-----------------------------------------------------|
|-----------------------------------------------9-----|
|--10-11-10-8-6-6-10-11-10-8-6-6-10-11-10-8-6-6--6-5-6|
|-----------------------------------------------------|
|-----------------------------------------------------|
|-----------------------------------------------------|


VERSO 1:

C#5         G#5              F#5              G#5
Tu sabes bien lo que anhelo y es que contigo siempre kiero estar 
C#5         G#5             F#5              G#5
y que aceptes mis errores, juro que algún día yo voy a cambiar

Lo haré por ti y tú vendrás impacientemente te esperaré
e|--------------------------------------|
B|--------------------------------------|
G|-6xx6x6-------------------------------|
D|-6xx6x6-6xx6x6-8xx8x8-6xx6x6-444-66---|
A|-4xx4x4-6xx6x6-8xx8x8-6xx6x6-444-66---|
E|--------4xx4x4-6xx6x6-4xx4x4-222-44---|
                               ...                                                             

CORO:
C#5       G#5                F#5           G#5
Dices que yo no lo lograré que es mi naturaleza engañar siempre
C#5       G#5                F#5           G#5
sabes que yo no lo intentaré haré todo para estar a tu lado

   C#5       G#5            F#5           G#5   
|-----------------------------------------------------|
|-----------------------------------------------9-----|
|--10-11-10-8-6-6-10-11-10-8-6-6-10-11-10-8-6-6--6-5-6|
|-----------------------------------------------------|
|-----------------------------------------------------|
|-----------------------------------------------------|

VERSO 2:
C#5        G#5                F#5              G#5
Tú sabes bien que tus besos son lo más nuevo que yo quiero probar
 C#5         G#5           F#5              G#5
Y cada vez que te veo uno de ellos yo intento robar 

Lo harás por mi y ya verás que el temor que tienes ya no existirá
e|--------------------------------------|
B|--------------------------------------|
G|-6xx6x6-------------------------------|
D|-6xx6x6-6xx6x6-8xx8x8-6xx6x6-444-66---|
A|-4xx4x4-6xx6x6-8xx8x8-6xx6x6-444-66---|
E|--------4xx4x4-6xx6x6-4xx4x4-222-44---|
                               ...
                                                             CORO:
C#5       G#5                F#5           G#5
Dices que yo no lo lograré que es mi naturaleza engañar siempre
C#5       G#5                F#5           G#5
sabes que yo no lo intentaré haré todo para estar a tu lado

ZOLO (ReKoNtRa RapiD0!
|---------------------------------------------|
|---------------------------------------------|
|----6h8h6h8h6h8h6h8h6h8(x2)------------------|
|---------------------------------------------|
|---------------------------------------------|
|---------------------------------------------|

|---------------------------------------------|
|--9h11h9h11h9h11(x2)-11h13h11h13h11h13(x2)---|
|---------------------------------------------|
|---------------------------------------------|
|---------------------------------------------|
|---------------------------------------------|
Zta parte va+ rápido!!!!!
|----------------------|
|-9h11-7h9-6h8-4h6-2h4-|
|----------------------|
|----------------------|
|----------------------|
|----------------------|
LuEgO OtRa VeZ El InTrO
|-----------------------------------------------------|
|-----------------------------------------------9-----|
|--10-11-10-8-6-6-10-11-10-8-6-6-10-11-10-8-6-6--6-5-6|
|-----------------------------------------------------|
|-----------------------------------------------------|
|-----------------------------------------------------|

CORO:
C#5       G#5                F#5           G#5
Dices que yo no lo lograré que es mi naturaleza engañar siempre
C#5       G#5                F#5           G#5
sabes que yo no lo intentaré haré todo para estar a tu ladooooooo
C#5         G#5                      F#5        G#5
ooooooooooooooooooooooooooooo estar a tu lado woooooooooooooooooo
C#5         G#5                 F#5        G#5                C#5
ooooooooooooooooooooooooooo estar a tu lado para estar a tu lado

OUTRO: 
con PALL MUTE y Un POkO rAPiDo!
|---------------------------------------------|
|---------------------------------------------|
|-------6-8-6-8-6-8-6-6-8-6-8-6-8-6-8-6-6-----|
|---------------------------------------------|
|---------------------------------------------|
|---------------------------------------------|

DuDaS o cOmEnTaRiOs------- rubentsv@hotmail.com

Salu2 pArA La PROMO 2008 5ºto “A” Del ZAnVi!!!!
…see…. TaMbIÉn pA Mi GrUpO LoS deZkONtRALadOz…!!!!
Ahh… si también para LaZ MaZ Poseerás Q He KonOZiO: ZaFiRo, Klau, Jennifer(la
detrapox) y klro pz ….para La NiNIa EmoZa *AnGeliTa* Tk …PrONtO EzTArE x AiA 
Добавлено: 30.07.2012
Другие материалы по этой песне:
  • Аккорды и текст

Страница создана 30.07.2012
http://primanota.ru/zero-balas/para-estar-a-tu-lado-chords.htm
Привет, Гость.
Предлагаем пройти революционный курс по гитаре.
Подарок от PrimaNota.Ru, забирай!