PrimaNota.ru - самый крупный в мире бесплатный архив песенных текстов, аккордов, табулатур и нот


Zeni Geva - Dead Sun Rising - аккорды и текст, таба, видео

Регистрация Запомнить меня
Войти через:  Facebook Google Twitter Vk Yandex Mail.ru

Zeni Geva - Dead Sun Rising - аккорды и текст, таба, видео

Печатать
Просмотров: 129
Dead Sun Rising
Zeni Geva
		   Album: Desire For Agony

Here it is, the ultimate headbanger anthem.
Dropped D-tuning for both guitars. A bass-amp for guitar 2
would improve the sound quite a bit(There is no bass).


Riff 1A:

Guitar 1

    1       2       3       4       5
E-|---------------------------------------|
B-|---------------------------------------|
G-|-8-8-8-7---x-8-8-8-7---x-8-8-7-7-------| 4x
D-|-7-7-7-7---x-7-7-7-7---x-7-7-7-7-------|
A-|---------------------------------------|
D-|---------------------------------6--5--|

Riff 1B:

Guitar 2

    1       2       3       4       5
E-|---------------------------------------|
B-|---------------------------------------|
G-|---------------------------------------|
D-|-7-7-7-7---x-7-7-7-7---x-7-7-7---------|
A-|-5-5-5-5---x-5-5-5-5---x-5-5-5---6--5--|
D-|-0-0-0-0---x-0-0-0-0---x-0-0-0---6--5--|

Riff 1A + 1B together 11x

Riff 2:(Tremolo in 32 Throughout)2x    Riff 3:( Tremolo in 32)

    1        2       3       4          1     2     3     4
E-|--------------------------------|   ------------------------|
B-|--------------------------------|   ------------------------|
G-|--------------------------------|   ------------------------|
D-|--------------------------------|   ------------------------|
A-|-5------------------------------|   -5-----------5----------|
D-|----------6-------5-------3-----|   ----6--5--3-----6--5--3-|

 Riff 3:

    1   2  3    4   5
E-|-----------------------|
B-|-----------------------|
G-|-----------------------|
D-|-----------------------|
A-|-5---------------------|
D-|-0---------------6--5--|

Play Riff 1A +1B 12x
Play Riff 2 2x
Play Riff 3 1x

Riff 4A:

    1       2   +   3   +   4       5
E-|-----------------------------------------|
B-|-----------------------------------------|
G-|-------------------------7---8---11---10-|
D-|-7-7-7-7-----7-7-7-7-----7---8---11---10-|
A-|-5-5-5-5-----5-5-5-5-----5---6---9----8--|
D-|-0-0-0-0-----0-0-0-0---------------------|
   Harmonics-----------

Riff 4B:


E-|-----------------------------------------|
B-|-----------------------------------------|
G-|-----------------------------------------|
D-|-0 0-0 0-----0-0-0-0-----0---1---4---3---|
A-|-0-0-0-0-----0-0-0-0-----0---1---4---3---|
D-|-0-0 0-0-----0-0-0-0-----0---1---4---3---|

Play Riff 4A + 4B 4x

   Riff 5A(Tremolo in 32)

    1   2   3  4  5
E-|-------------------|
B-|-11----------------|
G-|-------------------|
D-|-------------------|
A-|-------------------|
D-|-------------------|

Riff 5B(Tremolo except beat 5)

    1  2  3  4  5   +
E-|--------------------|
B-|--------------------|
G-|-7-----------13--12-|   Repeat Riff 5A +5B 4x
D-|-7-----------13--12-|
A-|-5------------------|
D-|-0------------------|

Riff 5C:
    1       2       3       4
E-|---------------------------------|
B-|---------------------------------|  Play Riff 5A +5C 1x,
G-|-7-7-7-7-7-7-7-7-7-7-7-7-7-7-7-7-|  then hold Chord for 4beats
D-|-7-7-7-7-7-7-7-7-7-7-7-7-7-7-7-7-|
A-|-5-5-5-5-5-5-5-5-5-5-5-5-5-5-5-5-|
D-|-0-0-0-0-0-0-0-0-0-0-0-0-0-0-0-0-|

 Play Riff2 2x
 Play Riff3 1x
 Play Riff4A +4B 4x
 Play Riff1A + 1B 4x
 Play Riff 2 2x


 Riff 6A:     Riff 6B:

E-|------|------------|   Play Riff 6A + 6B
B-|------|------------|   Both tremolo in 32
G-|-7----|------------|   for 1 1/2 bars (4/4)
D-|-7----|------------|
A-|------|------------|
D-|------|-----0------|


To me, this is as great as timing in Rock-related music can get.
If anybody got this far, send me an e-mail.     
Добавлено: 08.07.2013
Другие материалы по этой песне:
  • Аккорды и текст

Страница создана 22.02.2012
http://primanota.ru/zeni-geva/dead-sun-rising-chords.htm
Привет, Гость.
Предлагаем пройти революционный курс по гитаре.
Подарок от PrimaNota.Ru, забирай!