PrimaNota.ru - самый крупный в мире бесплатный архив песенных текстов, аккордов, табулатур и нот


Zen Cafe - Mies Eikä Poika Enää - таба, видео

Регистрация Запомнить меня
Войти через:  Facebook Google Twitter Vk Yandex Mail.ru

Zen Cafe - Mies Eikä Poika Enää - таба, видео

Печатать
Просмотров: 46
Уроки эстрадного вокала в Санкт-Петербурге
e----------------------------------------|
h------0---1--0------------1----------1--|
g----0---0--0---0------0----------0------| X 3
d--2-----------------4---4------2---2----|
a------------------5----------3----------|
E----------------------------------------|

Kivisestä maasta tuule joka päivä
e------------------------------------0--|
h------0-----------------------------1--|
g----0---0---------------------------0--|
d--2---------------------------------2--|
a------------------------------------3--|
E---------------------------------------|

Sama matka kouluun pyörällä tai ilman
e------------------------------------------------|
h------0---------------------------------------1-|
g----0---0---------------------------------0-----|
d--2-------------------------------------2---2---|
a--------------------------------------3---------|
E------------------------------------------------|

Pakkasrajan jälkeen isän oli pakko
e--------------------------------------------|
h------0--------------------1--------------1-|
g----0---0--------------0--------------0-----|
d--2------------------4---4----------2---2---|
a-------------------5--------------3---------|
E--------------------------------------------|

Pihapiirin lapset laittaa samaan autoon
e--------------------------------------------------|
h------0-----------------------------------------1-|
g----0---0-----------------------------------0-----|
d--2---------------------------------------2---2---|
a----------------------------------------3---------|
E--------------------------------------------------|


e--------------------------------------------------|
h--------------------------------------------------|
g--------------------------------------------------|
d--4--4/10-9--4--5-7--5~~---4-4/10-9--4--5--7------|
a---------------------------------------------7~~--|
E--------------------------------------------------|

               Em
Nyt puhuu mies
C
Mies eikä poika enää
               Em
Nyt puhuu mies
C
Mies eikä poika enää
               Em   C
Nyt puhuu mies

Seuraavan säkeistön tausta:
e----------------------------|
h------0------------------1--|
g----0---0------------0------|   X 4
d--2----------------2---2----|
a-----------------3----------|
E----------------------------|

Merikadun kenttä jäätyy ennen muita.

Pukuhuoneen penkit jykevästä puusta.

Tupakalle hintaa tuli alle kympin.

Kotiintuloaika aina liian varhain.


Seuraavan kerron tausta:
e----------------------------------------|
h------0---1--0------------1----------1--|
g----0---0--0---0------0----------0------| X 3
d--2-----------------4---4------2---2----|
a------------------5----------3----------|
E----------------------------------------|


C5                     A5
Oletko vielä hengissä? Missä sä oot ja mitä teet?
E5     D5          C5
Oletko yhtä kaunis kuin sä olit, vai onko
                      E5      D5            C5
kadonneet? Kiharat olkapäiltäsi. Ja pienet silkki-
                    A5     E5      C
käsineet. Oletko vielä hengissä?

Kerto

e-----------------------------------------------|
h-----------------------------------------------|
g-----------------------------------------------|
d--4-4/10-9--4--5-7--5~~--4-4/10-9--4-5--7------|
a------------------------------------------7~~--|
E-----------------------------------------------|

FADE OUT
Добавлено: 27.03.2016
Другие материалы по этой песне:
  • Аккорды и текст

Страница создана 27.03.2016
http://primanota.ru/zen-cafe/mies-eika-poika-enaa-chords.htm
Привет, Гость.
Предлагаем пройти революционный курс по гитаре.
Подарок от PrimaNota.Ru, забирай!