PrimaNota.ru - самый крупный в мире бесплатный архив песенных текстов, аккордов, табулатур и нот


Zen Cafe - Harri - таба, видео

Регистрация Запомнить меня
Войти через:  Facebook Google Twitter Vk Yandex Mail.ru

Zen Cafe - Harri - таба, видео

Печатать
Просмотров: 99
Уроки эстрадного вокала в Санкт-Петербурге
Авторы музыки: Zen Café
Авторы текста: Samuli Putro
|-----------------------------------------------------------------|
|-----------------------------------------------------------------|
|-6---6---8---9---14--14--14--14--6---6---8---9---7---7---7---7---|
|-6---6---8---9---14--14--14--14--6---6---8---9---7---7---7---7---|
|-4---4---6---7---12--12--12--12--4---4---6---7---5---5---5---5---|
|-----------------------------------------------------------------|

|-----------------------------------------------------------------|
|-----------------------------------------------------------------|
|-6---6---8---9---14--14--14--14----------------------------------|
|-6---6---8---9---14--14--14--14----------------------------------|
|-4---4---6---7---12--12--12--12--4-5-5-5-7-5-5-5-4-5-5-5-7-5-5-5-| |-4-|
|-----------------------------------------------------------------|

|--------------------------------|
|--------------------------------|
|-4-------0-------4-------0---2--|
|-----0---------------0----------|
Alkuillasta, puolikuudelta
Koputan ikkunasi karmeja 
Punaraitaiset verhot vetäiset
Auki niin että minä säikähdän
|-----------------------------------------------------------------|
|-----------------------------------------------------------------|
|-----------------------------------------------------------------|
|-----------------------------------------------------------------|
|-5-----4-------------------------5----4--------------------------|
|-----------------------------------------------------------------|
Sitten käskette, tule sisälle 
Älä seiso siinä niin kuin typerys 
Se sinun kaveri on mua vanhempi 
A                 C#m        H      
Myöhemmin illalla naurat mun kasvoilla 
A                 C#m        H      
Ollutta ilmettä - ei, kuunnelkaa 
|-----------------------------------------------------------------|
|-----------------------------------------------------------------|
|-----------------------------------------------------------------|
|-----------------------------------------------------------------|
|-5-4---4---4---4-5-4-4-4-4-4-4-4-7-7-7-7-7-7-7-7-----------------|
|-------------------------------------------------7-7-7-7-7-7-7-7-|
Harri on tehnyt itsestään pellen Harri on tööt-tööt-tööt
Harri on tehnyt itsestään pellen Harri on tööt-tööt-tööt
|-----------------------------------------------------------------|
|-----------------------------------------------------------------|
|-6---6---8---9---14--14--14--14--6---6---8---9---7---7---7---7---|
|-6---6---8---9---14--14--14--14--6---6---8---9---7---7---7---7---|
|-4---4---6---7---12--12--12--12--4---4---6---7---5---5---5---5---| |-4-|
|-----------------------------------------------------------------|
Minä tajuan, en ole apina 
Jokaisella on oma osansa 
Ilman sinua, en olis mukana 
Joku korkkaa pullon minun takana 
A                    C#m        H 
ja myöhemmin aamulla naurat mun kasvoilla
A                 C#m        H 
ollutta ilmettä - ei, kuunnelkaa
|-----------------------------------------------------------------|
|-----------------------------------------------------------------|
|-----------------------------------------------------------------|
|-----------------------------------------------------------------|
|-5-4---4---4---4-5-4-4-4-4-4-4-4-7-7-7-7-7-7-7-7-----------------|
|-------------------------------------------------7-7-7-7-7-7-7-7-|
Harri on tehnyt itsestään pellen Harri on tööt-tööt-tööt
Harri on tehnyt itsestään pellen Harri on tööt-tööt-tööt
|-----------------------------------------------------------------|
|-----------------------------------------------------------------|
|-6---6---8---9---14--14--14--14--6---6---8---9---7---7---7---7---|
|-6---6---8---9---14--14--14--14--6---6---8---9---7---7---7---7---|
|-4---4---6---7---12--12--12--12--4---4---6---7---5---5---5---5---|
|-----------------------------------------------------------------|
D           C#m
Kymmenkunta vuotta
G#m        A
Palaa takaisin
D               C#m
Ja palaa aivan suotta
G#m              A
Ei kukaan täällä käy
H                C#m
Ei ketään täällä näy 
|-----------------------------------------------------------------|
|---------------------------------2-2-2-2-2-2-2-2-----------------|
|-4-4-4-4-4-4-4-4-4-4-4-4-4-4-4-4-----------------2-2-2-2-2-2-2-2-|
|-----------------------------------------------------------------|
Harri on tehnyt itsestään pellen
Harri on tehnyt itsestään pellen
Harri on tööt-tööt-tööt
Harri on tehnyt itsestään pellen
Harri on tehnyt itsestään pellen
Harri on tööt-tööt-tööt
Harri on tehnyt itsestään pellen
Harri on tööt-tööt-tööt
Harri on tehnyt itsestään pellen
Harri on tööt-tööt-tööt
Harri on tehnyt itsestään pellen
Harri on tööt-tööt-tööt
Добавлено: 27.03.2016
Другие материалы по этой песне:
  • Аккорды и текст

Страница создана 27.03.2016
http://primanota.ru/zen-cafe/harri-chords.htm
Привет, Гость.
Предлагаем пройти революционный курс по гитаре.
Подарок от PrimaNota.Ru, забирай!