PrimaNota.ru - самый крупный в мире бесплатный архив песенных текстов, аккордов, табулатур и нот


Zeljko Joksimovic - Lud I Ponosan - аккорды и текст, видео

Регистрация Запомнить меня
Войти через:  Facebook Google Twitter Vk Yandex Mail.ru

Zeljko Joksimovic - Lud I Ponosan - аккорды и текст, видео

Печатать
Просмотров: 124
Lud I Ponosan
Zeljko Joksimovic
ORDER: V1 C V2 C GS V3 FC O


[VERSE 1] - acoustic
      Esus4       Em
Tko u te - be veruje
       Esus4      Em
tko ti te - lo oseća
      C7M         Amadd9/C
da ti la - že naivno
       Dsus2        Em
ne zna nit - ko kao ja.
      Esus4         Em
Da ti gla - sa ne čuje
     Esus4        Em
i da gla - vu okrene
       C7M         Amadd9/C
kad mi gledaš lice zna,
       Dsus4      Em
zna li i - ko kao ja?


[CHORUS 1] - acoustic
Am
O, o, o
        Am
ja mogu da te s kraja sveta vratim,
Em
jedini,
         Em
za svoju ludost da ti malo platim
B7         B7
isto sam i lud i ponosan.


[VERSE 2] - +electric, +drums
      Esus4       Em
Tko u te - be veruje
       Esus4      Em
tko ti te - lo oseća
      C7M         Amadd9/C
da ti la - že naivno
       Dsus2        Em
ne zna nit - ko kao ja.
      Esus4         Em
Da ti gla - sa ne čuje
     Esus4        Em
i da gla - vu okrene
       C7M         Amadd9/C
kad mi gledaš lice zna,
       Dsus4      Em (build up)
zna li i - ko kao ja?


[CHORUS 2]
Am
O, o, o
        Am
ja mogu da te s kraja sveta vratim,
Em
jedini,
         Em
za svoju ludost da ti malo platim
B
isto sam i lud i ponosan.
   Em
na to.
Am
O, o, o 
      Am
ti bi dalje al se uvek vratiš,
      Em
ma ne - maš gde,
     Em
a ni sama ne znaš to da shvatiš.
B
Sam Bog zna
        C
što bez tebe ne mogu,
  B
a bolujem 
             C
kad smo zajedno.


[GUITAR SOLO]

e|----------------------------------|-----------------------------------|
B|-8-----7-----8-----10-----8---7---|-8-----7-----10-----8-----7---8----|
G|---7-7---7-7---7-7----7-7---7---7-|---7-7---7-7----7-7---7-7---7---7--|
D|----------------------------------|-----------------------------------|
A|----------------------------------|-----------------------------------|
E|----------------------------------|-----------------------------------|
   1 e + a 2 e + a 3 e  + a 4 e + a   1 e + a 2 e +  a 3 e + a 4 e + a 
   Cadd9                              Cadd9

e|---------------------------------------|-----------------------------------|
B|---------------------------------------|-----------------------------------|
G|-14\12-12-12-11--11\9-9-9\7---7/9-9/11-|-11\9-9-9\7---9-9------------------|
D|---------------------------------------|-----------------------------------|
A|-12\10-10-10-9---9-\7-7-7\5---5/7-7/9--|-9-\7-7-7\5---7-7------------------|
E|---------------------------------------|-----------------------------------|
   1  e  +  a  2 e +  a 3 e + a 4 e + a    1  e + a 2 e + a 3 e + a 4 e + a 
   Em                                      Em

e|----------------------------------|-----------------------------------|
B|-8-----7-----8-----10-----8---7---|-8-----7-----10-----8-----7---8----|
G|---7-7---7-7---7-7----7-7---7---7-|---7-7---7-7----7-7---7-7---7---7--|
D|----------------------------------|-----------------------------------|
A|----------------------------------|-----------------------------------|
E|----------------------------------|-----------------------------------|
   1 e + a 2 e + a 3 e  + a 4 e + a   1 e + a 2 e +  a 3 e + a 4 e + a 
   Am7                                Cadd9

  (F# lightly played)      (triplet feel)
e|-----------------------------------|-----------------------------------------------|------|---------|
B|(7)--------------------------------|-----------------------------------------------|------|---------|
G|-7-9-9-9-9-7----------------16--16-|-16-\14--14--14-\12--12--12-\11--11--11-\9-\7--|-9----|---------|
D|-------------7-9-------------------|-----------------------------------------------|------|---------|
A|----------------------------14--14-|-14-\12--12--12-\10--10--10-\9---9---9--\7-\5--|-7----|---------|
E|-----------------------------------|-----------------------------------------------|------|---------|
   1 e + a 2 e + a 3 e + a 4  +   a    1   +   a   2   +   a   3   +   a   4   +  a
   Bm                                  D                                               Em     Em


[VERSE 3] - acoustic until "bože nije..", then add band
      Esus4        Em
Tvoja put  po meni je,
    Esus4         Em
kao mle - ko prosuta
      C7M         Amadd9/C
i sve tvo - je odaje
       D         Em
ne zna nitko kao ja.
     Esus4         Em
Bože ni - je tako, znam
           Esus4      Em
al ne znam šta se dešava
       C7M            Amadd9/C
što te vi - še znam u prstu
       Bm   C    D   Em (build)
sve mi teže mmmmmmmmmm.


[FINAL CHORUS]
Am
O, o, o
        Am
ja mogu da te s kraja sveta vratim,
Em
jedini,
         Em
za svoju ludost da ti malo platim
B
isto sam i lud i ponosan.
   Em
na to.
Am
O, o, o 
      Am
ti bi dalje al se uvek vratiš,
      Em
ma ne - maš gde,
     Em
a ni sama ne znaš to da shvatiš.
B
Sam Bog zna
        C
što bez tebe ne mogu,
  D
a bolujem 
             Esus4
kad smo zajedno.


[OUTRO]
( Esus4 ) Em Dadd9/F# Dadd9 Cadd9
Добавлено: 04.12.2015
Вам также может быть интересно:
Другие материалы по этой песне:
  • Аккорды и текст

Страница создана 04.12.2015
http://primanota.ru/zeljko-joksimovic/lud-i-ponosan-chords.htm
Привет, Гость.
Предлагаем пройти революционный курс по гитаре.
Подарок от PrimaNota.Ru, забирай!