PrimaNota.ru - самый крупный в мире бесплатный архив песенных текстов, аккордов, табулатур и нот


Zelda - Temple Of Time Theme Oot - таба, видео

Регистрация Запомнить меня
Войти через:  Facebook Google Twitter Vk Yandex Mail.ru

Zelda - Temple Of Time Theme Oot - таба, видео

Печатать
Просмотров: 90
Let the open D at the end of each sheet ring out.

e----------------------------------------------------|
B---------------------------1--0---------------------|
G--2----------2-----------2------0-----0-2-----------|
D------0---3------0---3-------------3------0----2-0--|
A---------------------------------------------3------|
E----------------------------------------------------|

----------

e----------------------------------------------------|
B---------------------------1--0---------------------|
G--2----------2-----------2------0-----0-2-----------|
D------0---3------0---3-------------3------0----2-0--|
A---------------------------------------------3------|
E----------------------------------------------------|

----------

e|-----------------------------------------|
B|-----------------------------------------|
G|---------------------------0-------------|
D|0---2---2-3-0----0---2---2--0------------|
A|--3---3------------3---3-----------------|
E|----------------------------------------- 


e|-----------------------------------------|
B|--1-0------------------------------------|
G|2-----0---0-2----------------------------|
D|--------3-----0----2-0-------------------|
A|-----------------3-----------------------|
E|-----------------------------------------


e|-----------------------------------------|
B|-----------------------------------------|
G|---0---0---------------------------------|
D|-3---3---2---3--2-0----------------------|
A|-----------3-----------------------------|
E|-----------------------------------------

and after that it just repeats, hadn't seen a full version so enjoy :)
Добавлено: 25.07.2015
Другие материалы по этой песне:
  • Аккорды и текст

Страница создана 25.07.2015
http://primanota.ru/zelda/temple-of-time-theme-oot-chords.htm
Привет, Гость.
Предлагаем пройти революционный курс по гитаре.
Подарок от PrimaNota.Ru, забирай!