PrimaNota.ru - самый крупный в мире бесплатный архив песенных текстов, аккордов, табулатур и нот


Zee Avi - Is This The End - таба, видео

Регистрация Запомнить меня
Войти через:  Facebook Google Twitter Vk Yandex Mail.ru

Zee Avi - Is This The End - таба, видео

Печатать
Просмотров: 202
Авторы музыки: Zee Avi
Авторы текста: Zee Avi
Is This The End.

Capo 1

Standard tuning

(intro)

-0----0---0-0-0-0---0-0-0-0---|
-0----2---2-2-2-2---2-2-2-2---|
-1----1---1-1-1-1---1-1-1-1---|
-2----2---2-2-2-2---2-2-2-2---|
-x----x---x-x-x-x---x-x-x-x---|
-x----x---x-x-x-x---x-x-x-x---|

The verse, and rest of the song is basically the same. But instead, is has the little
in-between the strumming. Although the order does move around, but just listen to the
Also I think there might be a few more little riffs, 1 or 2 but they're faint and hard 
make out and im lazy so. im pretty sure you can just play the whole song like this., more a
Enjoy!

-----------0-0-0-0---0-0-0-0---0-0-0--------------------0-0-0-0---0-0-0-0-|
---0--2---2-2-2-2---2-2-2-2---2-2-2------0--------------2-2-2-2---2-2-2-2-|
-1--1-----1-1-1-1---1-1-1-1---1-1-1-- -1---2--1---------1-1-1-1---1-1-1-1-|
-----------2-2-2-2---2-2-2-2---2-2-2--------------2-----2-2-2-2---2-2-2-2-|
-----------x-x-x-x---x-x-x-x---x-x-x--------------------x-x-x-x---x-x-x-x-|
-----------x-x-x-x---x-x-x-x---x-x-x--------------------x-x-x-x---x-x-x-x-|
Добавлено: 20.05.2012
Другие материалы по этой песне:
  • Аккорды и текст

Страница создана 20.05.2012
http://primanota.ru/zee-avi/is-this-the-end-chords.htm
Привет, Гость.
Предлагаем пройти революционный курс по гитаре.
Подарок от PrimaNota.Ru, забирай!