PrimaNota.ru - самый крупный в мире бесплатный архив песенных текстов, аккордов, табулатур и нот


Zebrahead - The Juggernauts - текст песни, таба, бас-таба, видео

Регистрация Запомнить меня
Войти через:  Facebook Google Twitter Vk Yandex Mail.ru

Zebrahead - The Juggernauts - текст песни, таба, бас-таба, видео

Печатать
Просмотров: 231
Artist: Zebrahead
Song: The Juggernauts
Album: Phoenix
Year: 2008

This is my very first tab ever! 
So please:
A rating or comment on how I did would be much appreciated!
If you have any questions, e-mail me at: thechampishere98@hotmail.com
And please, don't steal my work.

Youtube username: fender512.
So if you see me covering it, I'm the original guy! Subscribe to my stuff!

Tuning: Half-step down
Eb,Ab,Db,Gb,Bb,eb

*- let ring
x- mute note
h- hammer-on
p- pull-off


Intro- Lead(Palm Muted)
e-------------------------------------------------|
B-----------------------8-8-x-8-7-7---------------|
G-7-7-x-7-6-6-7-7-6-6---------------9-9--7-7------|
D-------------------------------------------------|  x 2
A-------------------------------------------------|
E-------------------------------------------------|


Verse- Lead (Same is intro/Palm Muted) 
e-------------------------------------------------|
B-----------------------8-8-x-8-7-7---------------|
G-7-7-x-7-6-6-7-7-6-6---------------9-9-7-7-------|
D-------------------------------------------------|  x 4  
A-------------------------------------------------|
E-------------------------------------------------|
 “Watching anvils falling all around…”


Chorus 1- Rhythm
e-------------------------------------------------|
B-------------------------------------------------|
G--------7----------------------------------------|
D--------7-(let ring)-----------------------------|  x 2
A--------5----------------—-----------------------|
E-------------------------------------------------|
 “We are the angry…”


Verse 2 – Lead(Palm Muted)
e-------------------------------------------------|
B-----------------------8-8-x-8-7-7---------------|
G-7-7-x-7-6-6-7-7-6-6---------------9-9-7-7-------|
D-------------------------------------------------|  x 4  
A-------------------------------------------------|
E-------------------------------------------------|
 “Dropping down a well that time forgot…”



Chorus 2 Part 1– Rhythm
e-------------------------------------------------|
B-------------------------------------------------|
G----7--------------------------------------------|
D----7-(x16)--5-----------------------------------|  x 2
A----5--------5-(x16)-------—---------------------|
E-------------3-----------------------------------|
 “We are the angry…”


Chorus 2 Part 2 – Rhythm
e-------------------------------------------------|
B-------------------------------------------------|
G---4-------------------4-------------------------|
D---4-(x16)--5----------4-(x16)--5-------7--------|  x 1
A---2--------5-(x16)----2-------—5-(x8)--7-(x8)---|
E------------3-------------------3-------5--------|
 “We won't wait…”


Chorus 2 Part 1 – Rhythm 
e-------------------------------------------------|
B-------------------------------------------------|
G----7--------------------------------------------|
D----7-(x16)--5-----------------------------------|  x 2
A----5--------5-(x16)-------—---------------------|
E-------------3-----------------------------------|
“We are the angry…”


Solo – Lead
e----------10--------14-14p12-10--------10-12-10-9-7-5---|
B---7h8------7h8-5--------------7h8----------------------|
G--------9---------------------------9-------------------|
D--------------------------------------------------------| 
A--------------------—-----------------------------------|
E--------------------------------------------------------|

e----------10--------14-14p12-10---------------------------|
B---7h8------7h8-------------------------------------------|
G--------9--------9----------------------------------------|
D----------------------------------------------------------| 
A--------------------—-------------------------------------|
E----------------------------------------------------------|

e-----------10-----------10-----------------------------10-|
B---10-12-14----10-12-14------(3rd time faster)10-12-14----|
G----------------------------------------------------------|
D----------------------------------------------------------| 
A--------------------—-------------------------------------|
E----------------------------------------------------------|

e-17-15-14----------------------------------------------------|
B----------15-------------------------------------------------|
G--------------14-12-11---------------------------------------|
D-----------------------12---14-12-14-16-17-14-16-12-14-11-9--| 
A--------------------—----------------------------------------|
E-------------------------------------------------------------|



e-17-15-14--------------------------------------------12-14-15-17*-|
B----------15-----------------------------------12-14--------------|
G--------------14-12-11----------------11-12-14--------------------|
D-----------------------12---14-12-14------------------------------| 
A--------------------—---------------------------------------------|
E------------------------------------------------------------------|


(Rhythm guitar plays Chorus 2 Part 2 in the background) x2

(The last note from solo leads into some of Ali's words)

Bridge - Rhythm (Palm Muted)
e-------------------------------------------------|
B-----------------------8-8-x-8-7-7---------------|
G-7-7-x-7-6-6-7-7-6-6---------------9-9--7-7------|
D-------------------------------------------------|  x 4
A-------------------------------------------------|
E-------------------------------------------------|
“We lost control again…”

Before Final Chorus - Lead
e-------------------------------------------------|
B-------------------------------------------------|
G-------------------------------------------------|
D-------------------------------------------------|
A----////pickslide/////---------------------------|
E-------------------------------------------------|
“Gotta find a way to make amends…”


Chorus 2 Part 1 – Rhythm 
e-------------------------------------------------|
B-------------------------------------------------|
G----7--------------------------------------------|
D----7-(x16)--5-----------------------------------|  x 2
A----5--------5-(x16)-------—---------------------|
E-------------3-----------------------------------|
“We are the angry…”


Chorus 2 Part 2 – Rhythm
e-------------------------------------------------|
B-------------------------------------------------|
G---4-------------------4-------------------------|
D---4-(x16)--5----------4-(x16)--5-------7--------|  x 1
A---2--------5-(x16)----2-------—5-(x8)--7-(x8)---|
E------------3-------------------3-------5--------|
“We won't wait…”

Chorus 2 Part 1 – Rhythm 
e-------------------------------------------------|
B-------------------------------------------------|
G----7--------------------------------------------|
D----7-(x16)--5-----------------------------------|  x 2
A----5--------5-(x16)-------—---------------------|
E-------------3-----------------------------------|
“We are the angry…”



Fade away - Lead(Palm Muted)
e-------------------------------------------------|
B-----------------------8-8-x-8-7-7---------------|
G-7-7-x-7-6-6-7-7-6-6---------------9-9--7-7------|
D-------------------------------------------------|  x 4
A-------------------------------------------------|
E-------------------------------------------------|



End on – Rhythm Guitar (Clean)
e--------|
B--------|
G---7----|
D---7----|  
A---5----|
E--------|

As song fades away, Lead guitar plays:
e-------------------------------------------------|
B-----------------------8-8-x-8-7-7---------------|
G-7-7-x-7-6-6-7-7-6-6---------------9-9--7-7------|
D-------------------------------------------------|
A-------------------------------------------------|
E-------------------------------------------------|



And don't forget… Zebrahead fu**in' rules!

Добавлено: 28.07.2012
Другие материалы по этой песне:

Страница создана 25.02.2012
http://primanota.ru/zebrahead/the-juggernauts-chords.htm
Привет, Гость.
Предлагаем пройти революционный курс по гитаре.
Подарок от PrimaNota.Ru, забирай!