PrimaNota.ru - самый крупный в мире бесплатный архив песенных текстов, аккордов, табулатур и нот


Zebrahead - Out Of Control - таба, видео

Регистрация Запомнить меня
Войти через:  Facebook Google Twitter Vk Yandex Mail.ru

Zebrahead - Out Of Control - таба, видео

Печатать
Просмотров: 110
-------------------------------------------------------------------------------
                             Out of Control - Zebrahead
-------------------------------------------------------------------------------
Tabbed by: Ralph G

Tuning: Drop D

Main riff A
|---------------------------------------------------------------------------|
|---------------------------------------------------------------------------|
|---------------------------------------------------------------------------|
|----7----------------------------------------------------------------------|
|--5---5-7h8p5-3------------------------------------------------------------|
|0---------------5-7-5-3----------------------------------------------------|


Main riff B
|---------------------------------------------------------------------------|
|---------------------------------------------------------------------------|
|---------------5----------------------------------------------------------|
|----7----------5-5-0-3-5-7------------------------------------------------|
|--5---5-7h8p7--3-5-0-3-5-7------------------------------------------------|
|0----------------5-0-3-5-7------------------------------------------------|
               |----PM-----|


Verse/outro riff A
|---------------------------------------------------------------------------|
|---------------------------------------------------------------------------|
|---------------------------------------------------------------------------|
|0-3-0-3-0-0-3-8-7-5-7------------------------------------------------------|
|0-3-0-3-0-0-3-8-7-5-7------------------------------------------------------|
|0-3-0-3-0-0-3-8-7-5-7------------------------------------------------------| x3

|---------------------------------------------------------------------------|
|---------------------------------------------------------------------------|
|---------------------------------------------------------------------------|
|0-3-0-3-0-0-3-8-7-5-0------------------------------------------------------|
|0-3-0-3-0-0-3-8-7-5-0------------------------------------------------------| Listen to the song for
|0-3-0-3-0-0-3-8-7-5-0------------------------------------------------------| the rhythm here


Pre chorus
|---------------------------------------------------------------------------|
|---------------------------------------------------------------------------|
|3333-3333-3333-3333-5555-5555-6666-6666------------------------------------|
|3333-3333-3333-3333-5555-5555-6666-6666------------------------------------|
|1111-1111-1111-1111-3333-3333-4444-4444------------------------------------|
|---------------------------------------------------------------------------|


Chorus
|---------------------------------------------------------------------------|
|---------------------------------------------------------------------------|
|----------5555-------------------------------------------------------------| 
|0000-3333-5555-5555--------------------------------------------------------|
|0000-3333-3333-5555--------------------------------------------------------|
|0000-3333------5555--------------------------------------------------------| x3

|---------------------------------------------------------------------------|
|---------------------------------------------------------------------------|
|3333-3333-5555-5555--------------------------------------------------------|
|3333-3333-5555-5555-0------------------------------------------------------|
|1111-1111-3333-3333-0------------------------------------------------------|
|--------------------0------------------------------------------------------|


Last chorus
|---------------------------------------------------------------------------|
|---------------------------------------------------------------------------|
|---------------5555--------------------------------------------------------|
|0000-3333-5555-5555--------------------------------------------------------|
|0000-3333-5555-3333--------------------------------------------------------|
|0000-3333-5555-------------------------------------------------------------|

|---------------------------------------------------------------------------|
|---------------------------------------------------------------------------|
|----------5555-------------------------------------------------------------| 
|0000-3333-5555-5555--------------------------------------------------------|
|0000-3333-3333-5555--------------------------------------------------------|
|0000-3333------5555--------------------------------------------------------| x2

|---------------------------------------------------------------------------|
|---------------------------------------------------------------------------|
|3333-3333-5555-5555--------------------------------------------------------|
|3333-3333-5555-5555--------------------------------------------------------|
|1111-1111-3333-3333--------------------------------------------------------|
|---------------------------------------------------------------------------| x2


Main riff A 8x
Verse/outro riff 
Main riff 4x
Pre chorus
Chorus
Main riff A 4x
Verse/outro riff 
Main riff A 3x
Main riff B
Pre chorus
Chorus
Solo/first part of chorus 4x
Main riff A (PM) 4x
Chorus
Last chorus
Verse/outro riff


************************************

| /   slide up
| \   slide down
| h   hammer-on
| p   pull-off
| ~   vibrato
| +   harmonic
| x   Mute note
| b   Bend
| pb  Pre-bend
| br  Bend release
| pbr Pre-bend release
| brb Bend release bend

************************************
Добавлено: 05.12.2015
Другие материалы по этой песне:
  • Аккорды и текст

Страница создана 05.12.2015
http://primanota.ru/zebrahead/out-of-control-chords.htm
Привет, Гость.
Предлагаем пройти революционный курс по гитаре.
Подарок от PrimaNota.Ru, забирай!