PrimaNota.ru - самый крупный в мире бесплатный архив песенных текстов, аккордов, табулатур и нот


Zebrahead - Freak Show - таба, видео

Регистрация Запомнить меня
Войти через:  Facebook Google Twitter Vk Yandex Mail.ru

Zebrahead - Freak Show - таба, видео

Печатать
Просмотров: 127
-------------------------------------------------------------------------------
                             Freak Show - Zebrahead
-------------------------------------------------------------------------------
Tabbed by: Ralph G

e|---------------------------------------------------------------------------|
B|11-9----9----------------------11-9----9--------11-11-9--------------------|
G|-----11---11-8----8-8---8-11-8------11---11-8----------11-8----------------|
D|---------------11-----11----------------------11---------------------------|
A|---------------------------------------------------------------------------|
E|---------------------------------------------------------------------------|

e|-----------------------------------11-11-----11-11------11-----------------|
B|11-9----9----------------------/11-11-11-/11-11-11--/11-11-----------------|
G|-----11---11-8----8-8---8-11-8---------------------------------------------|
D|---------------11-----11---------------------------------------------------|
A|---------------------------------------------------------------------------|
E|---------------------------------------------------------------------------|

Might get around to doing the whole song, but here's the intro for now. Enjoy!
Добавлено: 17.02.2016
Другие материалы по этой песне:
  • Аккорды и текст

Страница создана 17.02.2016
http://primanota.ru/zebrahead/freak-show-chords.htm
Привет, Гость.
Предлагаем пройти революционный курс по гитаре.
Подарок от PrimaNota.Ru, забирай!