PrimaNota.ru - самый крупный в мире бесплатный архив песенных текстов, аккордов, табулатур и нот


Zebrahead - Devil On My Shoulder - таба, видео

Регистрация Запомнить меня
Войти через:  Facebook Google Twitter Vk Yandex Mail.ru

Zebrahead - Devil On My Shoulder - таба, видео

Печатать
Просмотров: 75
This tab is written half step down!
I believe it can be played standard just move down one fret (1=0 4=3 8=7 ect.)

bass-tro (it's played on guitar but still sounds good when p.m.)
eb|---------------------------------|
bb|---------------------------------|
gb|---------------------------------|
db|---------------------------------|
ab|-33333-1-------------------------|
ee|---------44444-6-11111-4-3333-46-|

intro, notes should be fine, listen for rhythm
eb|------------------------------------|   ------------------------------------|
bb|-1/8-/1313131313\8-/1313\1111-1212\-|x3 -888-999-8-6-8-999-111111/161616-13-|
gb|------------------------------------|   ------------------------------------|
db|------------------------------------|   ------------------------------------|
ab|------------------------------------|   ------------------------------------|
eb|------------------------------------|   ------------------------------------|

VERSE
eb|-----------13----|
bb|-----13-16----13-|
gb|-----------------|x2
db|-----------------|
ab|-----------------|
eb|-/\--------------| /\=slide from top to bottom?

then
eb|----------------------------------------------------------------------------------|
bb|----------------------------------------------------------------------------------|
gb|-------------------------8888-8-8888-8-10101010-10-10101010-10-12121212-12--------|x2
db|-10101010-10-10101010-10---------------------------------------------------8888-8-|
ab|-------------------------6666-6-6666-6--8-8-8-8--8--8-8-8-8--8-10101010-10--------|
eb|--8-8-8-8--8--8-8-8-8--8---------------------------------------------------6666-6-|
     .......     .......    ....   ....    .......     .......    ........    ....

this is not actually played, but i play it at the end of the second repeat to match the singing.
eb|---------------------|
bb|---------------------|
gb|-12-13-12-10-12-10-8-|
db|---------------------|
ab|-10-11-10--8-10--8-6-|
eb|---------------------|
    d  u  d   u d   u d
ALI PRE CHORUS
eb|-------------------------------------------------------------|
bb|-------------------------------------------------------------|
gb|-88888888-1010101010101010-1212121212121212-1313131313131313-|
db|-------------------------------------------------------------|
ab|-66666666--8-8-8-8-8-8-8-8-1010101010101010-1111111111111111-|
eb|-------------------------------------------------------------|

CHORUS
eb|-----------------------------------------------------------------|
bb|-----------------------------------------------------------------|
gb|-------------------8-8888888-10-101010101010-12-1212121212-------|
db|-10-10101010101010-8-8888888-10-101010101010-12-1212121212-8-6-5-|
ab|-10-10101010101010-6-6666666--8--8-8-8-8-8-8-10-1010101010-8-6-5-|
eb|--8--8-8-8-8-8-8-8-----------------------------------------6-4-3-|

notes should be correct but listen to the rhythm rather then quantaties!
eb|-----------------------------------|
bb|-\88/13131313\88/1313-11111111-12\-|
gb|-----------------------------------|
db|-----------------------------------|
ab|-----------------------------------|
eb|-----------------------------------|

verse
ali pre chorus
chorus

solo part1
eb|16p15p13-------------------------16p15p13------------------------18p16p15----------------------------------|
bb|--------16p15p13-------------------------16p15p13------------------------18p16p15-----------------/13151615|
gb|----------------15p14p12-------------------------15p13p12------------------------17p15p14------------------|
db|------------------------14p12p10-------------------------13p12p10------------------------15p14p12----------|
ab|-----------------------------------------------------------------------------------------------------------|
eb|-----------------------------------------------------------------------------------------------------------|

solo 2nd part
eb|-------------------13----13-15-16/18-16-15-------b18-16-15-16-15---------------------------|
bb|-13-15-16-13-15-16----16-------------------16-15------------------16-15-b16r-16-15---------|
gb|----------------------------------------------------------------------------------17-15-17-|
db|-------------------------------------------------------------------------------------------|
ab|-------------------------------------------------------------------------------------------|
eb|-------------------------------------------------------------------------------------------|

bridge
eb|-----------------------------------------------------------------------------------------------------|
bb|-----------------------------------------------------------------------------------------------------|
gb|-88888888-1010101010101010-1212121212121212-1313131313131313-88888888-1010101010101010-121212-121212-|
db|---------------------------------------------------------------------------------------121212-121212-|
ab|-66666666--8-8-8-8-8-8-8-8-1010101010101010-1111111111111111-66666666--8-8-8-8-8-8-8-8-101010-101010-|
eb|-----------------------------------------------------------------------------------------------------|

eb|---------------------|
bb|---------------------|
gb|-12-13-12-10-12-10-8-|
db|---------------------|
ab|-10-11-10--8-10--8-6-|
eb|---------------------|
    d  u  d   u d   u d

chorus

intro riffage
Добавлено: 05.12.2015
Другие материалы по этой песне:
  • Аккорды и текст

Страница создана 05.12.2015
http://primanota.ru/zebrahead/devil-on-my-shoulder-chords.htm
Привет, Гость.
Предлагаем пройти революционный курс по гитаре.
Подарок от PrimaNota.Ru, забирай!