PrimaNota.ru - самый крупный в мире бесплатный архив песенных текстов, аккордов, табулатур и нот


Zebrahead - Call Your Friends - таба, бас-таба, видео

Регистрация Запомнить меня
Войти через:  Facebook Google Twitter Vk Yandex Mail.ru

Zebrahead - Call Your Friends - таба, бас-таба, видео

Печатать
Просмотров: 356
-------------------------------------------------------------------------------
                             Call Your Friends - Zebrahead
-------------------------------------------------------------------------------
Tabbed by: boultonn
E-mail: tabs@boultonn.co.uk

Tuning: Half-step down

Intro: Lead Guitar

eb|--------------------------------------------------------------------------|
Bb|--------------------------------------------------------------------10----|
Gb|------10----9----10----------------10----9----10---------10------10----10-|
Db|---10----10---10----10--x2------10----10---10----10---10----10-8----------| x3
Ab|-8--------------------------------------------------0---------------------|
Eb|----------------------------8---------------------------------------------|

Intro: Rhythm Guitar

eb|--------------------------------------------------------------------------|
Bb|--------------------------------------------------------------------------|
Gb|--------------------------------------------------------------------------|
Db|----------------------------------------------------7-7-8-8---------------|
Ab|----------------------------------------------------7-7-8-8---------------|
Eb|----------------------------------------------------5-5-6-6---------------|

eb|--------------------------------------------------------------------------|
Bb|--------------------------------------------------------------------------|
Gb|-10-10-10-10-10-10-10-10-10-10-10-10--------------------------------------|
Db|-10-10-10-10-10-10-10-10-10-10-10-10-10-10-10-10-10-10-7-7-7-7-7-8-8-8-8-8| x2
Ab|-8--8--8--8--8--8--8--8--8--8--8--8--10-10-10-10-10-10-7-7-7-7-7-8-8-8-8-8|
Eb|-------------------------------------8--8--8--8--8--8--5-5-5-5-5-6-6-6-6-6|

Verse 1

eb|--------------------------------------------------------------------------|
Bb|--------------------------------------------------------------------------|
Gb|----XX--7--XX--7--XX--7--XX--7--XX-----XX-----XX-----XX-------------------|
Db|----XX--7--XX--7--XX--7--XX--7--XX--8--XX--8--XX--5--XX--7----------------| x2
Ab|----XX--5--XX--5--XX--5--XX--5--XX--8--XX--8--XX--5--XX--7----------------|
Eb|----XX-----XX-----XX-----XX-----XX--6--XX--6--XX--3--XX--5----------------|

Pre-Chorus

eb|--------------------------------------------------------------------------|
Bb|--------------------------------------------------------------------------|
Gb|-------------------5--X--5--X--5--X--2--X--2--X--2--X--3--X--3--X--3------| x2
Db|-3--X--3--X--3--X--5--X--5--X--5--X--2--X--2--X--2--X--3--X--3--X--3------| On 2nd only play the last
Ab|-3--X--3--X--3--X--3--X--3--X--3--X--0--X--0--X--0--X--1--X--1--X--1------| chord once
Eb|-1--X--1--X--1--X---------------------------------------------------------|

Chorus x2

eb|--------------------------------------------------------------------------|
Bb|--------------------------------------------------------------------------|
Gb|-10-10-10-10-10-10-10-10-10-10-10-10--------------------------------------|
Db|-10-10-10-10-10-10-10-10-10-10-10-10-10-10-10-10-10-10-7-7-7-7-7-8-8-8-8-8| 
Ab|-8--8--8--8--8--8--8--8--8--8--8--8--10-10-10-10-10-10-7-7-7-7-7-8-8-8-8-8|
Eb|-------------------------------------8--8--8--8--8--8--5-5-5-5-5-6-6-6-6-6|

eb|--------------------------------------------------------------------------|
Bb|--------------------------------------------------------------------------|
Gb|-10-10-10-10-10-10-10-10-10-10-10-10--------------------------------------|
Db|-10-10-10-10-10-10-10-10-10-10-10-10-10-10-10-10-10-10-8-8-8-8-8-8-8-8-8-8| 
Ab|-8--8--8--8--8--8--8--8--8--8--8--8--10-10-10-10-10-10-8-8-8-8-8-8-8-8-8-8|
Eb|-------------------------------------8--8--8--8--8--8--6-6-6-6-6-6-6-6-6-6|

Pre-Verse

eb|--------------------------------------------------------------------------|
Bb|--------------------------------------------------------------------------|
Gb|-10-10-10-10-10-10-10-10-10-10-10-10--------------------------------------|
Db|-10-10-10-10-10-10-10-10-10-10-10-10-10-10-10-10-10-10-7-7-7-7-7-8-8-8-8-8| 
Ab|-8--8--8--8--8--8--8--8--8--8--8--8--10-10-10-10-10-10-7-7-7-7-7-8-8-8-8-8|
Eb|-------------------------------------8--8--8--8--8--8--5-5-5-5-5-6-6-6-6-6|

eb|--------------------------------------------------------------------------|
Bb|--------------------------------------------------------------------------|
Gb|-10-10-10-10-10-10-10-10-10-10-10-10--------------------------------------|
Db|-10-10-10-10-10-10-10-10-10-10-10-10-10-10-10-10-10-10----7----7----8----8| 
Ab|-8--8--8--8--8--8--8--8--8--8--8--8--10-10-10-10-10-10----7----7----8----8|
Eb|-------------------------------------8--8--8--8--8--8-----5----5----6----6|

Repeat Verse, Pre-Chorus & Chorus

Solo 

eb|-13-13-13-13-12-12-12-12-10-10-10-10-9-9-9-9---10-------------------------|
Bb|--------------------------------------------------------------------------|
Gb|--------------------------------------------------------------------------|
Db|--------------------------------------------------------------------------|
Ab|--------------------------------------------------------------------------|
Eb|--------------------------------------------------------------------------|

eb|-13-13-13-13-12-12-12-12-13-13-13-13-15-15-15-15--------------------------|
Bb|--------------------------------------------------------------------------|
Gb|--------------------------------------------------------------------------|
Db|--------------------------------------------------------------------------|
Ab|--------------------------------------------------------------------------|
Eb|--------------------------------------------------------------------------|

eb|-13-13-13-13-13-13-13-13-12-12-12-12-12-12-12-12--------------------------|
Bb|--------------------------------------------------------------------------|
Gb|--------------------------------------------------------------------------|
Db|--------------------------------------------------------------------------|
Ab|--------------------------------------------------------------------------|
Eb|--------------------------------------------------------------------------|

eb|-13-13-13-13-12-12-12-12-10-10-10-10-9-9-9-9-------------------------------------------------|
Bb|---------------------------------------------11-11-11-11-10-10-10-10-------------------------|
Gb|---------------------------------------------------------------------12-12-12-12-10-10-10-10-|
Db|---------------------------------------------------------------------------------------------|
Ab|---------------------------------------------------------------------------------------------|
Eb|---------------------------------------------------------------------------------------------|

eb|-----------------------------17-17-------17-17-------20-20-------22-22----|
Bb|-----------------------15-15-------15-15-------18-18-------20-20----------|
Gb|--9--10--10--9--10--9-----------------------------------------------------|
Db|--------------------------------------------------------------------------|
Ab|--------------------------------------------------------------------------|
Eb|--------------------------------------------------------------------------|

eb|-------15-15-17-17-18-18-------17-17-------17-17------20-20-------20-20---|
Bb|-14-14-------------------15-15-------15-15-------18-18------18-18---------|
Gb|--------------------------------------------------------------------------|
Db|--------------------------------------------------------------------------|
Ab|--------------------------------------------------------------------------|
Eb|--------------------------------------------------------------------------|

eb|-------22-22-------22-22---13--12-----------------------------------------|
Bb|-20-20-------20-20--------------------------------------------------------|
Gb|--------------------------------------------------------------------------|
Db|--------------------------------------------------------------------------|
Ab|--------------------------------------------------------------------------|
Eb|--------------------------------------------------------------------------|

Solo Rhythm

eb|--------------------------------------------------------------------------|
Bb|--------------------------------------------------------------------------|
Gb|-7-x-7-x-7-x--------------------------------------------------------------|
Db|-7-x-7-x-7-x-8-x-8-x-8-x-5-x-5-x-5-x-7-x-7-x-7----------------------------| x2
Ab|-5-x-5-x-5-x-8-x-8-x-8-x-5-x-5-x-5-x-7-x-7-x-7----------------------------|
Eb|-------------6-x-6-x-6-x-3-x-3-x-3-x-5-x-5-x-5----------------------------|

eb|--------------------------------------------------------------------------|         --
Bb|--------------------------------------------------------------------------|         -- 
Gb|-7--7--7--7--7--7--7------------------------------------------------------|         10
Db|-7--7--7--7--7--7--7--8--8--8--8--8--8--8--5--5--5--5--5--7--7--7--7--7---| x2      10
Ab|-5--5--5--5--5--5--5--8--8--8--8--8--8--8--5--5--5--5--5--7--7--7--7--7---| End on  8-
Eb|----------------------6--6--6--6--6--6--6--3--3--3--3--3--5--5--5--5--5---|         --

Bridge (Intro)
Finish on the open Ab on the second repeat

eb|--------------------------------------------------------------------------|
Bb|--------------------------------------------------------------------10----|
Gb|------10----9----10----------------10----9----10---------10------10----10-|
Db|---10----10---10----10--x2------10----10---10----10---10----10-8----------| x2
Ab|-8--------------------------------------------------0---------------------|
Eb|----------------------------8---------------------------------------------|

Final Chorus x2

eb|--------------------------------------------------------------------------|
Bb|--------------------------------------------------------------------------|
Gb|-10-10-10-10-10-10-10-10-10-10-10-10--------------------------------------|
Db|-10-10-10-10-10-10-10-10-10-10-10-10-10-10-10-10-10-10-7-7-7-7-7-8-8-8-8-8| 
Ab|-8--8--8--8--8--8--8--8--8--8--8--8--10-10-10-10-10-10-7-7-7-7-7-8-8-8-8-8|
Eb|-------------------------------------8--8--8--8--8--8--5-5-5-5-5-6-6-6-6-6|

eb|--------------------------------------------------------------------------|
Bb|--------------------------------------------------------------------------|
Gb|-10-10-10-10-10-10-10-10-10-10-10-10--------------------------------------|
Db|-10-10-10-10-10-10-10-10-10-10-10-10-10-10-10-10-10-10-8-8-8-8-8-8-8-8-8-8| 
Ab|-8--8--8--8--8--8--8--8--8--8--8--8--10-10-10-10-10-10-8-8-8-8-8-8-8-8-8-8|
Eb|-------------------------------------8--8--8--8--8--8--6-6-6-6-6-6-6-6-6-6|

Outro (play bride/intro over the top)

eb|--------------------------------------------------------------------------|
Bb|--------------------------------------------------------------------------|
Gb|-10-10-10-10-10-10-10-10-10-10-10-10--------------------------------------|
Db|-10-10-10-10-10-10-10-10-10-10-10-10-10-10-10-10-10-10-7-7-7-7-7-8-8-8-8-8| 
Ab|-8--8--8--8--8--8--8--8--8--8--8--8--10-10-10-10-10-10-7-7-7-7-7-8-8-8-8-8|
Eb|-------------------------------------8--8--8--8--8--8--5-5-5-5-5-6-6-6-6-6|

eb|--------------------------------------------------------------------------|
Bb|--------------------------------------------------------------------------|
Gb|-10-10-10-10-10-10-10-10-10-10-10---------------------------------------10|
Db|-10-10-10-10-10-10-10-10-10-10-10-10-10-10-10-10-10-7-7-7-7-7-8-8-8-8-8-10| 
Ab|-8--8--8--8--8--8--8--8--8--8--8--10-10-10-10-10-10-7-7-7-7-7-8-8-8-8-8-8-|
Eb|----------------------------------8--8--8--8--8--8--5-5-5-5-5-6-6-6-6-6---|

eb|--------------------------------------------------------------------------|
Bb|--------------------------------------------------------------------10----|
Gb|------10----9----10----------------10----9----10---------10------10----10-|
Db|---10----10---10----10--x2------10----10---10----10---10----10-8----------| x2
Ab|-8--------------------------------------------------0---------------------|
Eb|----------------------------8---------------------------------------------|

************************************

| /   slide up
| \   slide down
| h   hammer-on
| p   pull-off
| ~   vibrato
| +   harmonic
| x   Mute note
| b   Bend
| pb  Pre-bend
| br  Bend release
| pbr Pre-bend release
| brb Bend release bend

************************************
Добавлено: 17.02.2016
Другие материалы по этой песне:

Страница создана 24.06.2013
http://primanota.ru/zebrahead/call-your-friends-chords.htm
Привет, Гость.
Предлагаем пройти революционный курс по гитаре.
Подарок от PrimaNota.Ru, забирай!