PrimaNota.ru - самый крупный в мире бесплатный архив песенных текстов, аккордов, табулатур и нот


Ze Ramalho - Garoto De Aluguel - аккорды и текст, видео

Регистрация Запомнить меня
Войти через:  Facebook Google Twitter Vk Yandex Mail.ru

Ze Ramalho - Garoto De Aluguel - аккорды и текст, видео

Печатать
Просмотров: 81
Garoto De Aluguel
Ze Ramalho
(intro) Am Em Dm E

Am                                      Em
Baby, dê-me seu dinheiro que eu quero viver
                                 Dm
Dê-me seu relógio que eu quero saber
                                 E
Quanto tempo falta para lhe esquecer
                                 Am
Quanto vale um homem para amar você
Am                          Em
Minha profissão e suja e vulgar
                              Dm
Quero um pagamento para me deitar
                               E
Junto com você estrangular meu riso
                              Am   ( Em Am )
Dê-me seu amor que dele não preciso

Am                             Em
Baby, nossa relação acaba-se assim
                                 Dm
Como um caramelo que chegasse ao fim
                              E
Na boca vermelha de uma dama louca
                                Am
Pague meu dinheiro e vista sua roupa
Am                                 Em
Deixe a porta aberta quando for saindo
                                Dm
Você vai chorando e eu fico sorrindo
                               E
Conte pras amigas que tudo foi mal
                          Am
Nada me preocupa de um marginal

(solo)  Am Em D7 E


E |--12--10-9--12--10-9----12--10-9---12--10-9-12-|
B |-----------------------------------------------|
G |-----------------------------------------------|
D |-----------------------------------------------|
A |-----------------------------------------------|
E |-----------------------------------------------|

E |--12--10-9--12--10-9----12--10-9---12--10-9-12-|
B |-----------------------------------------------|
G |-----------------------------------------------|
D |-----------------------------------------------|
A |-----------------------------------------------|
E |-----------------------------------------------|

E |-10-9-7-10-9-7--10-9-7--10-9-7-10-----|
B |--------------------------------------|
G |--------------------------------------|
D |--------------------------------------|
A |--------------------------------------|
E |--------------------------------------|

E |-10-9-7-10-9-7--10-9-7--10-9-7-10-----|
B |--------------------------------------|
G |--------------------------------------|
D |--------------------------------------|
A |--------------------------------------|
E |--------------------------------------|

E |---9--7---9--7-----7--9-7-9-7---------|
B |---------------10-------------10------|
G |--------------------------------------|
D |--------------------------------------|
A |--------------------------------------|
E |--------------------------------------|

E |---9--7---9--7-----7--9-7-9-7---------|
B |---------------10-------------10------|
G |--------------------------------------|
D |--------------------------------------|
A |--------------------------------------|
E |--------------------------------------|

E |-----7-5-7-5-4-5-7-5-7-5-4------------|
B |--------------------------------------|
G |--------------------------------------|
D |--------------------------------------|
A |--------------------------------------|
E |--------------------------------------|

E |-2-1-4-2-5-4--7-5-9-7-10-9-12-10-9-7-9-|
B |---------------------------------------|
G |---------------------------------------|
D |---------------------------------------|
A |---------------------------------------|
E |---------------------------------------|
Добавлено: 20.05.2014
Вам также может быть интересно:
Другие материалы по этой песне:
  • Аккорды и текст

Страница создана 20.05.2014
http://primanota.ru/ze-ramalho/garoto-de-aluguel-chords.htm
Привет, Гость.
Предлагаем пройти революционный курс по гитаре.
Подарок от PrimaNota.Ru, забирай!