PrimaNota.ru - самый крупный в мире бесплатный архив песенных текстов, аккордов, табулатур и нот


Zbigniew Preisner - The Secret Garden Main Theme - таба, видео

Регистрация Запомнить меня
Войти через:  Facebook Google Twitter Vk Yandex Mail.ru

Zbigniew Preisner - The Secret Garden Main Theme - таба, видео

Печатать
Просмотров: 161
-------------------------------------------------------------------------------
            The Secret Garden Theme - Zbigniew Preisner
-------------------------------------------------------------------------------
Tabbed by: Charlie Hillman
E-mail: charliehillman100@hotmail.com

Tuning: Standard

A beautiful song that brings back so many memories from my childhood :)

Capo on 2nd

e|-----------------------------------------------------------|
B|--------------------------------------------1---0----------|
G|-----2---2---2--------2---2---2---------2-----2---2--------|
D|---2---2---2---2----2---2---2---2-----2---2---------2------|
A|-0----------------0-----------------0----------------------|
E|-----------------------------------------------------------|

e|-----------------------------------------------------------|
B|------------------0h1--3-----------------------------------|
G|-----2----------2--------0-0-0--0------2---2---2-----------|
D|---2---2------2----------------------2---2---2---2---------|
A|-0----------0--------0-----2-------0-----------------------|
E|---------------------------3--3----------------------------|

e|-----------------------------------------------------------|
B|--------------------------1---0---1------------------------|
G|-----2---2---2--------2-----2---2-------2------------------|
D|---2---2---2---2----2---2-------------2---2----------------|
A|-0----------------0-----------------0----------------------|
E|-----------------------------------------------------------|

e|-----------------------------------------------------------|
B|-------0h1--3----------------------------------------------|
G|-----2--------0-0-0--0------2---2---2-------2---2---2------|
D|---2----------------------2---2---2---2---2---2---2---2----|
A|-0--------0-----2-------0----------------0-----------------|
E|----------------3--3---------------------------------------|

e|--------0----------------------------------------0----0----|
B|-----------------------------0h1---------0---1---1----1----|
G|-----2----------2--------2-----------2-----2---2---2-------|
D|---2---2-2----2---2----2---2-------2---2-------------------|
A|-0----------0--------0-----------0-------------------------|
E|-----------------------------------------------------0-----|

e|-----0-0---------7---3-------------------------------------|
B|-----1-0-3---3---3---3-1------------------------------------|
G|---------4---4-------------2--------2----------------------|
D|---2---------5-----0-----2---2----2---2--------------------|
A|-0---------5---0-------0--------0--------------------------|
E|-----------------------------------------------------------|

e|---------------------------------1p0-----------------0--------------|
B|---------1----------1--3---3---------1---------0-1-------3---0------|
G|-----2----------0-0---0-0------0---------2---2-----0---0---0---0----|
D|---2---2------2--------------0---0-----2---2------------------------|
A|-0----------3------------------------0-----------3---3-------2------|
E|-------------------------3-----------------------------------3------|

e|-------------------------------------1p0-------------------|
B|-------------------------3--------0------1---------0-------|
G|-----2--------2--------0---0--0--------------2---2---------|
D|---2---2----2---2----2----------0----0-----2---2-----------|
A|-0--------0--------3---------------------0-----------------|
E|----------------------------3------------------------------|

e|-----0-----------------------------------------------------|
B|-1-------3---0---------------------1----------1---0---1----|
G|---0---0---0---0------2--------2----------2-----2---2------|
D|--------------------2---2----2---2------2---2--------------|
A|-3---3-------2----0--------0----------0--------------------|
E|-------------3---------------------------------------------|

e|----------------------------------------------------------|
B|------------------0h1---3---------------------------------|
G|-----2--------2-----------0-0-0-0------2---2---2----------|
D|---2---2----2---2--------------------2---2---2---2--------|
A|-0--------0-----------0-----2------0----------------------|
E|----------------------------3--3--------------------------|

e|--------------------------0-------------------------------|
B|------------------------------------------------------0h1-|
G|-----2---2---2--------2------------2---2---2--------2-----|
D|---2---2---2---2----2---2---2----2---2---2---2----2-------|
A|-0----------------0------------0----------------0---------|
E|----------------------------------------------------------|

e|------------------------------0-0------0-0-------7---3----|
B|------------------1---0---1-----1------1-0-3--3--3---3----|
G|-----2--------2-----2---2---2--------------4--4-----------|
D|---2---2----2---2--------------------2--------5----0------|
A|-0--------0--------------------0---0--------5---0---------|
E|----------------------------------------------------------|

e|----------------------------------------------------------|
B|-0h1----------------------------------------1---3---------|
G|------2---2---2--------2---2---2--------0-0---0---0-------|
D|----2---2---2---2----2---2---2---2----2-------------------|
A|-0-----------------0----------------3---------------------|
E|----------------------------------------------------------|

e|--0----1p0------------------0-----------------------------|
B|-----------1---------0--1-------3---0----1----------------|
G|-----0---------2---2------0---0---0---0------2------------|
D|---0---0-----2---2-------------------------2---2----------|
A|-----------0------------3---3-------2----0----------------|
E|-3----------------------------------3---------------------|

e|-------------------0-------1p0-----------------0----------|
B|---------1---3-----3-----------1---------0-1-------3---0--|
G|-----0-0---0---0-----0---0---------2---2-----0---0---0---0|
D|---2-------------------0---0-----2---2--------------------|
A|-3-----------------------------0-----------3---3---2---2--|
E|-----------------3-------------------------------------3--|

e|-----------------------------------------------0----------|
B|-----------------------------------------0h1-------3---0--|
G|-----2---2---2--------2---2---2--------2-----0---0---0---0|
D|---2---2---2---2----2---2---2---2----2--------------------|
A|-0----------------0----------------0-----------3---2---2--|
E|-------------------------------------------------------3--|

e|----------------0-----------------------------------------|
B|-1--------0--1--------------------------------------------|
G|-------2--------------------------------------------------|
D|----2-----------------------------------------------------|
A|-0----------------0---------------------------------------|
E|----------------------------------------------------------|




************************************

| /   slide up
| \   slide down
| h   hammer-on
| p   pull-off
| ~   vibrato
| +   harmonic
| x   Mute note
| b   Bend
| pb  Pre-bend
| br  Bend release
| pbr Pre-bend release
| brb Bend release bend

************************************
Добавлено: 04.11.2013
Другие материалы по этой песне:
  • Аккорды и текст

Страница создана 04.11.2013
http://primanota.ru/zbigniew-preisner/the-secret-garden-main-theme-chords.htm
Привет, Гость.
Предлагаем пройти революционный курс по гитаре.
Подарок от PrimaNota.Ru, забирай!